Gametabs
Home
Tabs
Random

Requiem of Spirit

Average rating: No ratings

Composer:

Tabber:

Style:

Instrument:

Created: May 11, 2011 at 12:00 AM

            Requiem of Spirit
Legend of Zelda: Ocarina of Time
Composed by: Koji Kondo
Tabbed by: Fenderic
Date tabbed: May 10th, 2011


E|----------------------|
A|---------0------------|
D|-0---3-0-----3---0----|
G|----------------------|

E|---------5------------|
A|-5---8-5-----8---5----|
D|----------------------|
G|----------------------|

E|----------------------|
A|---------0------------|
D|-0---3-0-----3-0------|
G|----------------------|
        
Comments

No comments yet