Gametabs
Home
Tabs
Random

Requiem of Spirit

Average rating: 4.750

4 ratings

Composer:

Tabber:

Style:

Instrument:

Created: June 28, 2009 at 12:00 AM

                   Legend of Zelda: Ocarina of Time - Requiem of Spirit GUITAR TAB
                              Song by Koji Kondo

                   Tabbed by auriplane ([email protected])


Drop-D tuning.

    Intro

   Q   E E Q   Q    H       E E E E
e |----1---5-------|----------------|
B |3-----3-5---6---|3---------------|
G |2-------4-------|2-------3-2-0-3-|
D |3-------2-------|3---------------|
A |0-------2-------|----------------|
D |0-------2-------|3-------2-------|
                                    
   Q   E E Q   Q    H       E E E E
e |----1---5-------|----------------|
B |3-----3-5---6---|3---------------|
G |2-------4-------|2-------3-5-3-2-|
D |3-------2-------|3---------------|
A |0-------2-------|----------------|
D |0-------2-------|3-------2-------|
                                    
   Q   E E Q   Q    H       H
e |--------5-------|----------------|
B |----6---5---6---|3---------------|
G |7-----7-7-------|2---------------|
D |7-------7-------|2-------4-------|
A |5-------5-------|0---------------|
D |5-------5-------|0---------------|
        
Comments

@auriplane (June 28, 2009 at 6:43 PM)

I just noticed I had the name wrong (I had "requiem of time" instead of "requiem of spirit"), so I checked and there's already two other tabs for this. Shoulda known ;-) Check them out:

http://www.gametabs.net/nintendo-64/zelda-ocarina-of-time/requiem-of-spirit/juja http://www.gametabs.net/nintendo-64/zelda-ocarina-of-time/requiem-of-spirit/archard