Gametabs
Home
Tabs
Random

Requiem of Spirit

Average rating: 4.800

5 ratings

Composer:

Tabber:

Style:

Instrument:

Created: September 30, 2007 at 12:00 AM

            Game: The Legend of Zelda: Ocarina of Time
Song: "Requiem of Spirit"
Composed by: Koji Kondo
Tabbed by: Not So Great Juja (Paul Horses)

Key:
~ = vibrato
p = pull-off
h = hammer-on
b = bend
/ = slide
pm = palm-mute
tr = tremolo picking

You'll have to be in drop D for this song.

e|-----1-------5-----------------------|
B|-3-------3-------6--3----------------|
G|-2-----------0------2----3--2--0--3--|
D|-3------------------3----------------|
A|-------------------------------------|
D|-0-----------2------3----2-----------| 

e|-----1-------5-----------------------|
B|-3-------3-------6--3----------------|
G|-2-----------0------2----3--5--3--2--|
D|-3------------------3----------------|
A|-------------------------------------|
D|-0-----------2------3----2-----------| 

e|-------------5------------------|
B|-----6-----------6--------------|
G|-7-------7----------7-----------|
D|-8------------------7-----------|
A|--------------------7----9------|
D|-5------------------------------|

        
Comments

No comments yet