Gametabs
Home
Tabs
Random

Nocturne of Shadow

Average rating: No ratings

Composer:

Tabber:

Style:

Instrument:

Created: June 11, 2010 at 12:00 AM

            Nocturne of Shadow
Legend of Zelda: Ocarina of Time
Composed by Koji Kondo
Tabbed by Rob Van
6/11/10

E|------------------------7---5-5---7-5-1--|
A|-2---0-0---2-0------------------5--------|
D|---------0-----3-------------------------|
G|-----------------------------------------|

E|-3---1-1---3-1--4---2-2---4--2---1--|
A|---------3--------------4-----------|
D|------------------------------------|
G|------------------------------------|

        
Comments

No comments yet