Gametabs
Home
Tabs
Random

Market

Average rating: 4.900

10 ratings

Composer:

Tabber:

Style:

Created: September 30, 2007 at 12:00 AM

            Market
The Legend of Zelda: Ocarina of Time
Composed by Koji Kondo

Guitar
               |--3--|                    |--3--|
     Q    Q    E  E  E  Q       Q    Q    E  E  E  Q
E||--------------------------|------------0--2--3-------|
B||--3----3----3--1--0--1----|--3----3-------------3----|
G||-------0-------------2----|-------4------------------|
D||--------------------------|--------------------------|
A||------------0-------------|--2---------3--------3----|
E||--3-----------------------|--------------------------|

            |--3--|          |--3--|  |--3--|
  Q    Q    E  E  E  Q       E  E  E  E  E  E  Q    Q
--------------------------|-------------------------------||
--3----3----3--1--0--1----|--3--1--0--1--0----------------||
-------0-------------2----|-----------------2--0---------*||
--------------------------|-----------0------------------*||
------------0-------------|--3----------------------------||
--3-----------------------|--------------------3----3-----||

  |--3--|  |--3--|               |--3--|  |--3--|
  E  E  E  E  E  E  Q    Q       E  E  E  E  E  E  Q    Q
------------------------------|------------------------------|
--------------------0---------|-----0--1--0--------0---------|
--2-----2--2--0--2-------2----|--2-----------2--0-------2----|
--0-----------------0---------|--0-----------------0---------|
------------------------------|------------------------------|
------------------------------|------------------------------|

  |--3--|  |--3--|               |--3--|  |--3--|
  E  E  E  E  E  E  Q    Q       E  E  E  E  E  E  H
------------------------------|-----------------------------|
--------------------0---------|-----0--1--3--1--0-----------|
--2-----2--2--0--2-------2----|--2-----------------2--------|
--0-----------------0---------|--0-----------------0--------|
------------------------------|-----------------------------|
------------------------------|-----------------------------|

  |--3--|  |--3--|               |--3--|  |--3--|
  E  E  E  E  E  E  Q    Q       E  E  E  E  E  E  Q    Q
------------------------------|------------------------------|
--------------------0---------|--------1--0--------0---------|
--2-----2--2--0--2-------2----|--2-----------2--0-------2----|
--0-----------------0---------|--0-----------------0----0----|
------------------------------|------------------------------|
------------------------------|------------------------------|

  |--3--|  |--3--|               |--3--|
  E  E  E  E  E  E  Q    Q       E  E  E  H.                W
------------------------------|-------------------------||-------------------|
--------------------0---------|-----0--1--3-------------||-------------------|
--2-----2--2--0--2-------2----|--2--------2------------*||-------------------|
--0-----------------0---------|--0---------------------*||-------------------|
------------------------------|-------------------------||-------------------|
------------------------------|-------------------------||-------------------|

  W
-------------------||
-------------------||
-------------------||
-------------------||
-------------------||
-------------------||

Duration Legend
---------------
W - whole
H - half
Q - quarter
E - 8th
S - 16th
T - 32nd
X - 64th
. - note dotted
|-n-|  - n-tuplets

        
Comments

@fredrik (January 02, 2008 at 9:29 AM)

It´s a damn good tab :)


@amz181 (January 06, 2008 at 3:44 PM)

Brilliant tabbing, thx alot, your brought back alot of memories, now to learn it


@Blademaster (July 21, 2008 at 7:13 PM)

wow, that's pretty good


@Kaja.tan (January 16, 2011 at 2:08 AM)

awesome.y awesome tablature!!!! this rocksSS


@musenji (October 20, 2014 at 5:57 PM)

Virtually identical to someone else's market tab, except for the last four notes. I had commented on theirs to say "it should be this way"...and in yours it already is that way, haha, go figure.