Gametabs
Home
Tabs
Random

Market

Average rating: 4.909

11 ratings

Composer:

Tabber:

Style:

Instrument:

Created: September 30, 2007 at 12:00 AM

            Market
~The Legend of Zelda: Ocarina of Time
Composed by: Koji Kondo
Arranged by: Justin Lincoln (Kabukibear)
Get this and more @ www.kabukibear.com

Drop D Tuning

     Q.     Q.     E  E  E  Q.        Q.     Q.     E  E  E  Q.
E||--------------------------------|----------------0--2--3---------|
B||--3------3------3--1--0--1------|--3------3---------------3------|
G||--------------------------------|--------------------------------|
D||--------------------------------|--------------------------------|
A||----------------0--------0------|--2------2------3--------3------|
D||--5------5----------------------|--------------------------------|

  Q.     Q.     E  E  E  Q.        E  E  E  E  E  E  Q.     Q.
--------------------------------|-----------------------------------||
--3------3------3--1--0--1------|--3--1--0--1--0--------------------||
--------------------------------|-----------------2--0-------------*||
--------------------------------|-----------0----------------------*||
----------------0--------0------|--3--------------------------------||
--5------5----------------------|--------------------5------5-------||

   E  E  E  E  E  E  E  E  E  E  E  E     E  E  E  E  E  E  E  E  E  E  E  E
---------------------------------------|--------------------0--2--3-----------|
---3-----3--------3--3--1--0--1-----1--|--3-----3--------3-----------3-----3--|
*-----0--------0-----------------2-----|-----0--------0-----------------0-----|
*--------------------------------------|--------------------------------------|
---------------------0--------0--------|--2--------2--------3--------3--------|
---5--------5--------------------------|--------------------------------------|

  E  E  E  E  E  E  E  E  E  E  E  E     E  E  E  E  E  E  E  E  E  E  E  E
--------------------------------------|---------------------------------------||
--3-----3--------3--3--1--0--1-----1--|--3--1--0--1--0------------------------||
-----0--------0-----------------2-----|-----------------2--0-----0--------0--*||
--------------------------------------|-----------0-----------0--------0-----*||
--------------------0--------0--------|--3------------------------------------||
--5--------5--------------------------|--------------------5--------5---------||

  Q    E  E  E  E  Q.     Q.        Q    E  E  E  E  Q.     Q.
---------------------------------|---------------------------------|
-------------------0-------------|-------1--0--------0-------------|
--2----2--2--0--2---------2------|--2----------2--0---------2------|
--0----------------0-------------|--0----------------0-------------|
---------------------------------|---------------------------------|
---------------------------------|---------------------------------|

  Q    E  E  E  E  Q.     Q.        E  E  E  E  E  E  H.
---------------------------------|---------------------------------|
-------------------0-------------|-----0--1--3--1--0---------------|
--2----2--2--0--2---------2------|--2-----------------2------------|
--0----------------0-------------|--0-----------------0------------|
---------------------------------|---------------------------------|
---------------------------------|---------------------------------|

  E  E  E  E  E  E  E  E  E  E  E  E     E  E  E  E  E  E  E  E  E  E  E  E
--------------------------------------|--------------------------------------|
--------------------0-----0-----------|--------1--0--------0-----0-----------|
--2-----2--2--0--2-----------2-----2--|--2-----------2--0-----------2-----2--|
-----0-----------------0--------0-----|-----0-----------------0--------0-----|
--------------------------------------|--------------------------------------|
--0--------0--------0--------0--------|--0--------0--------0--------0--------|

  E  E  E  E  E  E  E  E  E  E  E  E
--------------------------------------|
--------------------0-----0-----------|
--2-----2--2--0--2-----------2-----2--|
-----0-----------------0--------0-----|
--------------------------------------|
--0--------0--------0--------0--------|

                        Repeat to beginning and fade out
  E  E  E  H.           Q.
----------------------------------------------------------||
----------------------------------------------------------||
--2--4--5--7---------------------------------------------*||
---------------------------------------------------------*||
----------------------------------------------------------||
--2--4--5--7----------------------------------------------||

Duration Legend
---------------
W - whole
H - half
Q - quarter
E - 8th
S - 16th
T - 32nd
X - 64th
. - note dotted
|-n-|  - n-tuplets

        
Comments

@PolakDave (November 14, 2007 at 7:42 AM)

sweet!


@Anonymous (November 21, 2007 at 10:49 PM)

is this for left hand guitar? because the droped d is on the wrong side


@Kabukibear (November 22, 2007 at 5:33 PM)

Er, no. Drop D is dropping the 6th string (low E) of the guitar.


@Kabukibear (January 06, 2008 at 4:44 PM)

woah is that midi ever screwed up


@wako-kun (June 21, 2008 at 12:59 PM)

This tab is rally nice... just one question....

isn't easier to play it with ebgdae tuning (regular) and switch the 5:s on the 6th string to 3:s?


@drake (June 21, 2008 at 2:00 PM)

............


@yoshistrings (August 14, 2008 at 3:23 PM)

Awesome. why is it though, that when a drop the e string to d, the 5s sound to high?


@hslesperance (September 14, 2008 at 8:23 PM)

Great arrangement. The midi is 2 hours long. lol


@Nemus (June 04, 2010 at 7:53 PM)

as above :)


@Maxdesa21 (September 15, 2012 at 2:51 PM)

Just incredible! The midi is astonishing!