Gametabs
Home
Tabs
Random

Lost Woods

Average rating: 4.733

15 ratings

Composer:

Tabber:

Style:

Instrument:

Created: March 06, 2010 at 12:00 AM

            Name of song:         Lost Woods
Name of game:         The Legend of Zelda
Composer:             Koji Kondo
Arrangement & Tab by: .kkrieger
Date: 03-05-2010 (MM DD YYYY)


      E  E  E  E  E  E  E  E     E  E  E  E  E  E  E  E   
E||------0--2--L-----0--2--L--|-----0--2--7--5--L--2--3--|
B||---1-----------1-----------|--1-----------------------|
G||*-----0--0--0-----0--0--0--|-----0--0--------0--0-----|
D||*-----2--2--2-----2--2--2--|-----2--2--------2--------|
A||---3-----------3-----------|--3-----------3-----------|
E||---------------------------|--------------------------|


  E  E  E  E  E  E  E  E     E  E  E  E  E  E  E  E   
--2-----------------------|--------------------------|
-----3--0--L--------------|--0--3--0-----------------|
-----0--0--0-----0--0--2--|-----0--0--0-----0--0-----|
-----0--0--0-----0--0-----|-----0--0--0-----0--0-----|
--------------------------|-----------------------2--|
--3-----------3-----------|--3-----------3-----------|


  E  E  E  E  E  E  E  E     E  E  E  E  E  E  E  E   
-----0--2--L-----0--2--L--|-----0--2--7--5--L--2--3--|
--1-----------1-----------|--1-----------------------|
-----0--0--0-----0--0--0--|-----0--0--------0--0-----|
-----2--2--2-----2--2--2--|-----2--2--------2--------|
--3-----------3-----------|--3-----------3-----------|
--------------------------|--------------------------|


  E  E  E  E  E  E  E  E     E  E  E  E  E  E  E  E   
--7--3-----------------2--|--------------------------|
--------3-----------------|--3-----0-----------------|
-----0--0--0-----0--0-----|-----2--0--0-----0--0-----|
-----0--0--0-----0--0-----|-----0--0--0-----0--0-----|
--------------------------|-----------------------2--|
--3-----------3-----------|--3-----------3-----------|


  E  E  E  E  E  E  E  E     E  E  E  E  E  E  E  E   
-----------------0--2-----|--3--2--------------0-----|
-----0--1-----3--3--3-----|--0--3--0--------0--0-----|
--2--2--2-----2-----------|--------0--------0--------|
--2-----------0--------0--|--------------------------|
--0--------0--------------|--------------------------|
--------------------------|--3--------3--0--------3--|


  E  E  E  E  E  E  E  E     E  E  E  E  E  E  E  E   
-----------------0--2-----|--3--5--7-----------------|
-----0--1-----3--3--3-----|--0--0--0--------0--0-----|
--2--2--2-----2-----------|-----------------0--0-----|
--2-----------0--------0--|--------------------------|
--0--------0--------------|-----------------------2--|
--------------------------|--3--------3--0-----------|


  E  E  E  E  E  E  E  E     E  E  E  E  E  E  E  E   
-----------------0--2-----|--3--2--------------------|
-----0--1-----3--3--3-----|--0--3--0-----------------|
--2--2--2-----2-----------|--------0--------0--0-----|
--2-----------0--------0--|-----------------0--0-----|
--0--------0--------------|--------------------------|
--------------------------|--3--------3--3--------3--|


  E  E  E  E  E  E  E  E     E  E  E  E  E  E  S E   S  
--------------------0-----|--2--0--3--2--5--3--7-8-----|
--0-----1--0--3--1-----3--|-------------------------10-|
-----2--------------------|----------------------------|
--------------------------|----------------------------|
--0--------------0--0-----|----------------------------|
--------------------------|--3-------------------------|


                                              NH      
  E  Q    E  E  Q    E     E  E  E  E  Q      Q       
--7---------------------|-------------------<>7-----||
------------------------|-------------------<>7-----||
-----9----9-----9----9--|-----8--8--8--8-----------*||
-----9----9-----9----9--|-----9--9--9--9-----------*||
-----9----9-----9----9--|-----9--9--9--9------------||
--7----------7----------|--7------------------------||




Duration Legend
---------------
Q - quarter
E - 8th
S - 16th

        
Comments

@diralark (March 06, 2010 at 9:26 PM)

Oh that's great ! Congratz !


@Brave Toaster (March 11, 2010 at 4:30 AM)

Trident of the sea king! AMAZING! I wonder I didn't I see this before. It is good. Way too good. The rhythim and the melody mix perfectly. It must have been hard to put those bass/rhythim notes/chords rightly. They are VERY well placed. Congratulations for this awesome arrangement. I'm going to try it out right away! Thank you for sharing it with us!


@DarkHorizon (May 25, 2010 at 2:21 AM)

wow! same here. how did i miss this tab? awesome ^^