Gametabs
Home
Tabs
Random

Lost woods

Average rating: 4.000

4 ratings

Composer:

Tabber:

Style:

Instrument:

Created: November 20, 2018 at 12:00 AM

            /) Slide Up  (\) Slide Down  (h) Hammer On  (p) Pull Off  (b) Bend (r) Release (v) Vibrato

Capo Fret 4

Stave 1:

E|-----------------------------0------------------------------------------
B|--------0--------0--------0-----3-----0h1--0----------------------------
G|-----2--------2--------2-----------2----------0-------------0-----------
D|--3--------3--------3----------------------------2-----0/2-----2--------
A|--------------------2----------------------3----------------------------
E|--1---------------------------------------------------------------------

Stave 2:

E|-----------------------------0-------------0----------------------------
B|--------0--------0--------0-----3-----0h1-----0--------0----------------
G|-----2--------2--------2-----------2-------------0--------0-------------
D|--3--------3--------3----------------------------------------0--2-------
A|--------------------2----------------------3----------------------------
E|--1---------------------------------------------------------------------

Stave 3:

E|-----------------5--7--------7--8--7--------------------------------------5--7--8-----7--8---10-12--
B|-----5--6-----8--------5--0-----------5-----5-----5-----------5--6-----8-----------0--0---------
G|--2--------5--------------5--------------5-----5-----0-----2--------5---------------------------
D|------------------------------------------------------------------------------------------------
A|--5-----------------------0-----------------------------5-----------------------------0---------
E|------------------------------------------------------------------------------------------------

Stave 4:

E|-------12-----------------------5--7--------
B|--0------0--------5--6------8---------0--0--
G|----12-----12-2---------5----------------5--
D|--------------------------------------------
A|--------------5--------------------------5--
E|--------------------------------------------

E|--7--8--7--------------------
B|-----------5-----5-----5-----
G|--------------5-----5-----0--
D|-----------------------------
A|-----------------------------
E|-----------------------------

E|----------------------5-------------7--5--8--7--10--8--12/13--
B|-0--5--3--6--5--8--6-----8------------------------------------
G|-5--------------------------0---------------------------------
D|--------------------------------------------------------------
A|-5--------------5-----------0---------------------------------
E|----------------------------5---------------------------------

Stave 5:

E|--12---------12---------12---------12---------12---------12---------12---------12---------
B|------0----------0----------0----------0----------0----------0----------0----------0------
G|---------12---------12---------12---------12---------12---------12---------12---------12--
D|------------------------------------------------------------------------------------------
A|--0---------------------------------------------------------------------------------------
E|------------------------------------------------------------------------------------------

Stave 6:

E|--12/13--12---------12---------12---------12---------12---------12---------12---------12---------
B|-------------0----------0----------0----------0----------0----------0----------0----------0------
G|----------------12---------12---------12---------12---------12---------12---------12---------12--
D|-------------------------------------------------------------------------------------------------
A|-------------------------------------------------------------------------------------------------
E|---------0---------------------------------------------------------------------------------------

Stave 7:

E|--12---------12---------10---------10---------12---------12---------12---------12---------
B|------0----------0----------0----------0----------0----------0----------0----------0------
G|---------10---------10---------9----------9----------9------------9---------9---------9---
D|------------------------------------------------------------------------------------------
A|--8---------------------------------------------------------------------------------------
E|------------------------------------------------------------------------------------------

Stave 8:

E|--12---------12---------12---------12---------12---------12---------
B|------0----------0----------0----------0----------0----------0------
G|---------9---------9----------9-----------9----------9----------9---
D|--------------------------------------------------------------------
A|--------------------------------------------------------------------
E|--0-----------------------------------------------------------------

Stave 9:

E|--0--------------------------
B|-----------1--------0--------
G|-----------------------------
D|-----------------------------
A|-----------------------------
E|--1--------------------------



        
Comments

@importantshoes (November 24, 2018 at 9:31 PM)

Nice! Really like the video too!