Gametabs
Home
Tabs
Random

Lost Woods

Average rating: 5.000

10 ratings

Composer:

Tabber:

Style:

Instrument:

Created: August 08, 2008 at 12:00 AM

            Arrangement: Dan Agosto

Quick tip: First two lines are little more than an F Major with an open B and e
as well as an Em.

   E E E E E E E E E E E E E E E E E E E E E E E E E E E E E E E E
e------------------------0-----------------------------------------
B------0-T-----0-T---------3-T-0-1-0-------------------------------
G----2-------2-------2-4-------------0---------------0-------------
D--3-------3-------3-------------------2-----T---0-2---2-----------
A----3---3---3---3---3---3---3---3---2---2---2---2---2---2---2---2-
E--1-------1-------1-------1-------0-------0-------0-------0-------


   E E E E E E E E E E E E E E E E E E E E E E E E E E E E E E E E
e------------------------0---------0-------------------------------
B------0-T-----0-T-----0---3-T-0-1---0-----------0-----------------
G----2-------2-------2-----------------0-----T-----0---------------
D--3-------3-------3---------------------------------0-2-----T-----
A----3---3---3---3---3---3---3---3---2---2---2---2---2---2---2---2-
E--1-------1-------1-------1-------0-------0-------0-------0-------


   E E E E E E E E E E E E E E E E E E E E E E E E E E E E E E E
e--------------------------------------------------------0-T-----
B--------------0-T-1-0-------1-------------------0-T-1-3-------1-
G----------0-2---------------2---------------0-2---------------2-
D--0-2-3-T-------------2-T-----------0-2-3-T---------------------
A--5-----0---------3-----3-0-------0-5-----0---------3-----3-0---
E----------3-----3---------------------------3-----3-------------


  E E E E E E E E E E E E E E S E S E E E E
e-----------------------------0-1---0-----T---------0-------
B-----------------0---1-0-3-1-----3---3---3---0---0-0-------
G---------0---2-0---2-----------------4---4---1---1-1-------
D-2-0-3-2---3-----------------------2-------2-------2-------
A-5---5---5---5---3---3---3---3-T-------------------2-------
E---------------------------------------------------0-------

        
Comments

@LoZ_ROXORS (October 10, 2008 at 12:44 PM)

Sound great once you can play it right it just take time


@auriplane (October 10, 2008 at 12:56 PM)

Tabs like this make me want to buy an acoustic :-)


@Colin_spade (March 21, 2009 at 1:58 PM)

Ah. ths tab is too awsome. thanx man.


@DanteW (November 01, 2010 at 10:26 AM)

Hey guys, what mean "T" instead of fret ?? I would be really grateful if someon explain me.


@DanteW (February 12, 2011 at 4:28 PM)

Thx :D


@GuitarSavior (June 15, 2021 at 12:59 AM)

nice