Gametabs
Home
Tabs
Random

Lon Lon Ranch

Average rating: 4.500

2 ratings

Composer:

Tabber:

Style:

Instrument:

Created: March 17, 2013 at 12:00 AM

            Tuning:GDGBD Hey Listen!!
/=Slide


|-0-------0------0--------------------0----0-0--------0------0-----0------------------|
|---0-------0------0----------------2---0------2--------0------0-----0----------------|
|-----2-------2------2-2/4-2---------------------4-2------2------2-----2-2/4-2--------|
|----------------------------4-3-4----------------------------------------------------|
|-------------------------------------------------------------------------------------|


|-----------0--0-2-0------------------------------------------------------------------|
|-------0-2---------------------------------------------------------------------------|
|-------------------------------------------------------------------------------------|
|-4-3-4-------------------------------------------------------------------------------|
|-------------------------------------------------------------------------------------|
        
Comments

@Anglerte (April 13, 2013 at 8:50 PM)

it's cool to see that someone's finally posting more banjo tabs. Even better that it's an Ocarina of Time tab. :D


@Skaln (August 30, 2014 at 6:01 PM)

This is great, except you are missing the last half of the song.