Gametabs
Home
Tabs
Random

Lon Lon Ranch

Average rating: 4.500

2 ratings

Composer:

Tabber:

Style:

Instrument:

Created: November 13, 2014 at 12:00 AM

            The Legend of Zelda - Ocarina of Time (Lon Lon Ranch)
The Legend of Zelda - Majora's Mask (Epona's Song)

Composers - Koji Kondo 

Tabbed by andersongs87

Tuning: 
Guitar Standard (EADGBe)
Bass Standard (EADG)

MP3 Download : https://www.mediafire.com/?ofeqrxjjh3fotvf
Youtube Cover : https://www.youtube.com/watch?v=pafCdv5QKHA

08/November/2014

Guitar Lead
E||--------------------------------|----------------|----------------|
B||--------------------------------|----------------|----------------|
G||--------------------------------|----------------|----------------|
D||-12-9-----12-9----12-9----9-----|-------11-12-9~-|-12-12-11-9-----|
A||------12-------12------12---12~-|-9-8-9----------|------------12~-|
E||--------------------------------|----------------|----------------|

E||--------------------------------|----------------|----------|
B||--------------------------------|----------------|----------|
G||--------------------------------|----------------|---9------|
D||-12-9-----12-9----12-9----9-----|-------9-11-12~-|12---12~--|
A||------12-------12------12---12~-|-9-8-9----------|----------|
E||--------------------------------|----------------|----------|

E||----------------------------|--------------------------|
B||----------------------------|--------------------------|
G||----------------------------|--------------------------|
D||-8-8-8-8-8-10-8-8-7-7-10----|--------------------------|
A||-------------------------8~-|-10-10-10-10-10-12-13-12~-|
E||----------------------------|--------------------------|

E||----------------------------|--------------------------|
B||----------------------------|--------------------------|
G||----------------------------|--------------------------|
D||-8-8-8-8-8-10-8-8-7-7-10----|--------------------------|
A||-------------------------8~-|-10-10-10-10-10-12-13-12~-|
E||----------------------------|--------------------------|

E||--------------------------------|----------------|----------------|
B||--------------------------------|----------------|----------------|
G||--------------------------------|----------------|----------------|
D||-12-9-----12-9----12-9----9-----|-------11-12-9~-|-12-12-11-9-----|
A||------12-------12------12---12~-|-9-8-9----------|------------12~-|
E||--------------------------------|----------------|----------------|

E||--------------------------------|----------------|----------|
B||--------------------------------|----------------|----------|
G||--------------------------------|----------------|---9------|
D||-12-9-----12-9----12-9----9-----|-------9-11-12~-|12---12~--|
A||------12-------12------12---12~-|-9-8-9----------|----------|
E||--------------------------------|----------------|----------|

E||----------------------|
B||----15--12-10---------|
G||--------------10-9-7~-|
D||-12-------------------|
A||----------------------|
E||----------------------|


Bass
G||--------------------------------------------------|
D||--------------------------------------------------|
A||-5---5-----5--4--3--2--1-----------5-5-4-3--2--1--|
E||---3----3-----------------5--3--5-----------------|

G||---------------------------------------------------|
D||---------------------------------------------------|
A||-5---5--1-3-----5-----3--------1--3-----5----------|
E||---3---------1-----3-----1--1--------1-----3--1--0-|

G||-------------------------------------------------------------|
D||-------------------------------------------------------------|
A||----5--4--3--2--1------------5--4--3--2--1--------5-5---5----|
E||-5------------------5--3--5-----------------5--3------3---3--|
        
Comments

No comments yet