Gametabs
Home
Tabs
Random

Lon Lon Ranch

Average rating: 4.500

2 ratings

Composer:

Tabber:

Style:

Instrument:

Created: May 15, 2017 at 12:00 AM

            The Legend of Zelda: Ocarina of Time
Lon Lon Ranch
Composed by Koji Kondo
Tabbed by: Kamiden
5/3/2017
Tuning: Standard
Format:
Slide (If any)
|   |   |
Melody
|   |   |
Accompaniment


(Use slide for intro,last note bleeds into next line)
   |    |    |    |    |    |    |    |    |    |    |    |    |  
e|-------------------------17/19\17----------------------12/14\10|
B|-------------------------17/19\17----------------------12/14\10|
G|---------------------------------------------------------------|
D|---------------------------------------------------------------|
A|---------------------------------------------------------------|
E|---------------------------------------------------------------|
 | |    |    |    |    |    |    |    |    |    |    |    |    | |
e|---------------------------------------------------------------|
B|---------------------------------------------------------------|
G|---------------------------------------------------------------|
D|---------------------------------------------------------------|
A|---------------------------------------------------------------|
E|---------------------------------------------------------------|
 | |    |    |    |    |    |    |    |    |    |    |    |    | |
e|---------------------------------------------------------------|
B|------3----3------------------------3----3---------------------|
G|------2----2---------4--------------2----2---------4-----------|
D|----4---------4------5------------4---------4------5-----------|
A|-5-----------------5-----------5-----------------5-------------|
E|----------------3-----------------------------3----------------|


   |    |    |    |    |    |    |    |    |    |    |    |     
e|----------20/22\17-------10/14\10-----------------14/15\14---|
B|----------20/22\17-------10/14\10----------------------------|
G|-------------------------------------------------------------|
D|-------------------------------------------------------------|
A|-------------------------------------------------------------|
E|-------------------------------------------------------------|
 | |    |    |    |    |    |    |    |    |    |    |    |    |
e|-10-7-----------10-7-----------10-7------7-------------------|
B|------10-------------10-------------10--------10-------------|
G|-------------------------------------------------------------|
D|-------------------------------------------------------------|
A|-------------------------------------------------------------|
E|-------------------------------------------------------------|
 | |    |    |    |    |    |    |    |    |    |    |    |    |
e|-------------------------------------------------------------|
B|------3----3---------2----2---------1----1---------0----0----|
G|------2----2---------2----2---------2----2---------0----0----|
D|----4---------4----3---------3----4---------4----0---------0-|
A|-5--------------4--------------3--------------2--------------|
E|-------------------------------------------------------------|


   |    |    |    |    |    |    |    |    |    |    |    |     
e|--------------------------------------------------14/15\14---|
B|--------------------------------------------------14/15\14---|
G|-------------------------------------------------------------|
D|-------------------------------------------------------------|
A|-------------------------------------------------------------|
E|-------------------------------------------------------------|
   |    |    |    |    |    |    |    |    |    |    |    |    |
e|----------------9-10-7---------10--------10---9-7------------|
B|-7---------7---------------------------------------10--------|
G|------10-----------------------------------------------------|
D|-------------------------------------------------------------|
A|-------------------------------------------------------------|
E|-------------------------------------------------------------|
 | |    |    |    |    |    |    |    |    |    |    |    |    |
e|-------------------------------------------------------------|
B|-------------------------------------------------------------|
G|------3----3---------2----2---------4----4---------6----6----|
D|------4----4---------4----4---------5----5---------5----5----|
A|----5---------5----5---------5----5---------5----7---------7-|
E|-6--------------5--------------3--------------5--------------|

								
   |    |    |    |    |    |    |    |    |    |    |    |     
e|----------20/22\17-------12/14\10----------------------------|
B|----------20/22\17-------12/14\10----------------------------|
G|-------------------------------------------------------------|
D|-------------------------------------------------------------|
A|-------------------------------------------------------------|
E|-------------------------------------------------------------|
 | |    |    |    |    |    |    |    |    |    |    |    |    |
e|-10-7-----------10-7-----------10-7------7-------------------|
B|------10-------------10-------------10--------10-------------|
G|-------------------------------------------------------------|
D|-------------------------------------------------------------|
A|-------------------------------------------------------------|
E|-------------------------------------------------------------|
 | |    |    |    |    |    |    |    |    |    |    |    |    |
e|-------------------------------------------------------------|
B|------3----3---------2----2---------1----1---------0----0----|
G|------2----2---------2----2---------2----2---------0----0----|
D|----4---------4----3---------3----4---------4----0---------0-|
A|-5--------------4--------------3--------------2--------------|
E|-------------------------------------------------------------|

Slide 16-17-16-17-16-15 along with the accompaniment rhythm.
   |    |    |    |    |    |    |    |    |    |    |    |    |
e|---------------------1617161716\15-------\\\\\14-------------|
B|-------------------------------------------------------------|
G|-------------------------------------------------------------|
D|-------------------------------------------------------------|
A|-------------------------------------------------------------|
E|-------------------------------------------------------------|
   |    |    |    |    |    |    |    |    |    |    |    |    |
e|----------------7-9--10--------10--------12---10-------------|
B|-7---------7-------------------------------------------------|
G|------10-----------------------------------------------------|
D|-------------------------------------------------------------|
A|-------------------------------------------------------------|
E|-------------------------------------------------------------|
 | |    |    |    |    |    |    |    |    |    |    |    |    |
e|-------------------------------------------------------------|
B|---------------------------------------------------3----3----|
G|------3----3---------2----2---------4----6---------2----2----|
D|------4----4---------4----4---------5----5-------4---------4-|
A|----5---------5----5---------5----5------7--7-5--------------|
E|-6--------------5--------------3---------5-------------------|


   |    |    |    |    |    |    |    |    |    |    |    |    |    |    |    |
e|-6-6--6----6----6----8----6----6\5--5----8----------------------------------|
B|----------------------------------------------6--------------8-8--8----8----|
G|----------------------------------------------------------------------------|
D|----------------------------------------------------------------------------|
A|----------------------------------------------------------------------------|
E|----------------------------------------------------------------------------|
 | |    |    |    |    |    |    |    |    |    |    |    |    |    |    |    |
e|---------1--------------0--------------1------------------------------------|
B|------3----3---------1----1---------1----1------------3--------------6------|
G|----3---------3----3---------3----2---------2------2----2---------3----3----|
D|-------------------------------3--------------0-h3---------3----5---------5-|
A|-1--------------3-----------------------------------------------------------|
E|-------------------------------------------------------------3--------------|


   |    |    |    |    |    |    |    |    |    |    |    |    |    |    |     
e|------5----6----5-----------------------------6-6--6----6----6----8----6----|
B|-8--------------------------------------------------------------------------|
G|----------------------------------------------------------------------------|
D|----------------------------------------------------------------------------|
A|----------------------------------------------------------------------------|
E|----------------------------------------------------------------------------|
 | |    |    |    |    |    |    |    |    |    |    |    |    |    |    |    |
e|------------------------------------------------------1--------------3------|
B|---------5--------------3--------------4-----------3----3---------5----5----|
G|------3----3---------2----2---------2----2-------3---------3----3---------3-|
D|----5---------5----3---------3----3---------3-------------------------------|
A|-3--------------------------------------------1--------------3--------------|
E|----------------1--------------1--------------------------------------------|


   |    |    |    |    |    |    |    |    |    |    |    |    |    |    |    |    |    |     
e|-6\5--5----8---------------------------------------5----6----5-----------------------------|
B|----------------6--------------8-8--8----8----8--------------------------------------------|
G|-------------------------------------------------------------------------------------------|
D|-------------------------------------------------------------------------------------------|
A|-------------------------------------------------------------------------------------------|
E|-------------------------------------------------------------------------------------------|
 | |    |    |    |    |    |    |    |    |    |    |    |    |    |    |    |    |    |    |
e|---------1--------------1-----------------------------------------------------------0------|
B|------1----2---------3----3------------3--------------3--------------3-----------2----2----|
G|----2---------2----2---------2------3----3---------3----3---------3----3--0----0---------2-|
D|-3--------------0-----------------5---------5----3---------3----2--------------------------|
A|----------------------------------------------------------------------------0--------------|
E|-------------------------------3--------------1--------------0-----------------------------|


   |    |    |    |    |    |    |    |    |    |    |    |     
e|-10-7-----------10-7-----------10-7------7-------------------|
B|------10-------------10-------------10--------10-------------|
G|-------------------------------------------------------------|
D|-------------------------------------------------------------|
A|-------------------------------------------------------------|
E|-------------------------------------------------------------|
 | |    |    |    |    |    |    |    |    |    |    |    |    |
e|-------------------------------------------------------------|
B|------3----3---------2----2---------1----1---------0----0----|
G|------2----2---------2----2---------2----2---------0----0----|
D|----4---------4----3---------3----4---------4----0---------0-|
A|-5--------------4--------------3--------------2--------------|
E|-------------------------------------------------------------|


   |    |    |    |    |    |    |    |    |    |    |    |     
e|----------------9-10-7---------10--------10---9-7------------|
B|-7---------7---------------------------------------10--------|
G|------10-----------------------------------------------------|
D|-------------------------------------------------------------|
A|-------------------------------------------------------------|
E|-------------------------------------------------------------|
 | |    |    |    |    |    |    |    |    |    |    |    |    |
e|-------------------------------------------------------------|
B|-------------------------------------------------------------|
G|------3----3---------2----2---------4----4---------6----6----|
D|------4----4---------4----4---------5----5---------5----5----|
A|----5---------5----5---------5----5---------5----7---------7-|
E|-6--------------5--------------3--------------5--------------|


   |    |    |    |    |    |    |    |    |    |    |    |     
e|-10-7-----------10-7-----------10-7------7-------------------|
B|------10-------------10-------------10--------10-------------|
G|-------------------------------------------------------------|
D|-------------------------------------------------------------|
A|-------------------------------------------------------------|
E|-------------------------------------------------------------|
 | |    |    |    |    |    |    |    |    |    |    |    |    |
e|-------------------------------------------------------------|
B|------3----3---------2----2---------1----1---------0----0----|
G|------2----2---------2----2---------2----2---------0----0----|
D|----4---------4----3---------3----4---------4----0---------0-|
A|-5--------------4--------------3--------------2--------------|
E|-------------------------------------------------------------|


   |    |    |    |    |    |    |    |    |    |    |    |     
e|----------------7-9--10--------10--------12---10-------------|
B|-7---------7-------------------------------------------------|
G|------10-----------------------------------------------------|
D|-------------------------------------------------------------|
A|-------------------------------------------------------------|
E|-------------------------------------------------------------|
 | |    |    |    |    |    |    |    |    |    |    |    |    |
e|-------------------------------------------------------------|
B|---------------------------------------------------3----3----|
G|------3----3---------2----2---------4----6---------2----2----|
D|------4----4---------4----4---------5----5-------4---------4-|
A|----5---------5----5---------5----5------7--7-5--------------|
E|-6--------------5--------------3---------5-------------------|


   |    |    |    |    |    |    |    |    |    |    |    |     
e|--------------------------10-------------7-------------------|
B|-------------------------------------------10----------------|
G|---------------------7----------------------------------10-9-|
D|-------------------------------------------------------------|
A|-------------------------------------------------------------|
E|-------------------------------------------------------------|
 | |    |    |    |    |    |    |    |    |    |    |    |    |
e|-------------------------------------------------------------|
B|------3----3------------------------3----3-------------------|
G|------2----2---------4--------------2----2---------4---------|
D|----4---------4------5------------4---------4------5---------|
A|-5-----------------5-----------5-----------------5-----------|
E|----------------3-----------------------------3--------------|


   |    |    |    |    |    |    |    |    |    |    |    |    |  
e|-------------------------17/19\17----------------------12/14\10|
B|-------------------------17/19\17----------------------12/14\10|
G|---------------------------------------------------------------|
D|---------------------------------------------------------------|
A|---------------------------------------------------------------|
E|---------------------------------------------------------------|
   |    |    |    |    |    |    |    |    |    |    |    |    | |
e|---------------------------------------------------------------|
B|---------------------------------------------------------------|
G|-7-------------------------------------------------------------|
D|---------------------------------------------------------------|
A|---------------------------------------------------------------|
E|---------------------------------------------------------------|
 | |    |    |    |    |    |    |    |    |    |    |    |    | |
e|---------------------------------------------------------------|
B|------3----3------------------------3----3---------------------|
G|------2----2---------4--------------2----2---------4-----------|
D|----4---------4------5------------4---------4------5-----------|
A|-5-----------------5-----------5-----------------5-------------|
E|----------------3-----------------------------3----------------|


   |    |    |    |    |    |    |    |    |    |    |    |     
e|----------20/22\17-------12/14\10-----------------14/15\14---|
B|----------20/22\17-------12/14\10----------------------------|
G|-------------------------------------------------------------|
D|-------------------------------------------------------------|
A|-------------------------------------------------------------|
E|-------------------------------------------------------------|
 | |    |    |    |    |    |    |    |    |    |    |    |    |
e|-10-7-----------10-7-----------10-7------7-------------------|
B|------10-------------10-------------10--------10-------------|
G|-------------------------------------------------------------|
D|-------------------------------------------------------------|
A|-------------------------------------------------------------|
E|-------------------------------------------------------------|
 | |    |    |    |    |    |    |    |    |    |    |    |    |
e|-------------------------------------------------------------|
B|------3----3---------2----2---------1----1---------0----0----|
G|------2----2---------2----2---------2----2---------0----0----|
D|----4---------4----3---------3----4---------4----0---------0-|
A|-5--------------4--------------3--------------2--------------|
E|-------------------------------------------------------------|


   |    |    |    |    |    |    |    |    |    |    |    |     
e|--------------------------------------------------14/15\14---|
B|--------------------------------------------------14/15\14---|
G|-------------------------------------------------------------|
D|-------------------------------------------------------------|
A|-------------------------------------------------------------|
E|-------------------------------------------------------------|
   |    |    |    |    |    |    |    |    |    |    |    |    |
e|----------------9-10-7---------10--------10---9-7------------|
B|-7---------7---------------------------------------10--------|
G|------10-----------------------------------------------------|
D|-------------------------------------------------------------|
A|-------------------------------------------------------------|
E|-------------------------------------------------------------|
 | |    |    |    |    |    |    |    |    |    |    |    |    |
e|-------------------------------------------------------------|
B|-------------------------------------------------------------|
G|------3----3---------2----2---------4----4---------6----6----|
D|------4----4---------4----4---------5----5---------5----5----|
A|----5---------5----5---------5----5---------5----7---------7-|
E|-6--------------5--------------3--------------5--------------|


   |    |    |    |    |    |    |    |    |    |    |    |     
e|----------20/22\17-------10/14\10----------------------------|
B|----------20/22\17-------10/14\10----------------------------|
G|-------------------------------------------------------------|
D|-------------------------------------------------------------|
A|-------------------------------------------------------------|
E|-------------------------------------------------------------|
 | |    |    |    |    |    |    |    |    |    |    |    |    |
e|-10-7-----------10-7-----------10-7------7-------------------|
B|------10-------------10-------------10--------10-------------|
G|-------------------------------------------------------------|
D|-------------------------------------------------------------|
A|-------------------------------------------------------------|
E|-------------------------------------------------------------|
 | |    |    |    |    |    |    |    |    |    |    |    |    |
e|-------------------------------------------------------------|
B|------3----3---------2----2---------1----1---------0----0----|
G|------2----2---------2----2---------2----2---------0----0----|
D|----4---------4----3---------3----4---------4----0---------0-|
A|-5--------------4--------------3--------------2--------------|
E|-------------------------------------------------------------|

Slide 16-17-16-17-16-15 along with the accompaniment rhythm.
   |    |    |    |    |    |    |    |    |    |    |    |    |
e|---------------------1617161716\15-------\\\\\14-------------|
B|-------------------------------------------------------------|
G|-------------------------------------------------------------|
D|-------------------------------------------------------------|
A|-------------------------------------------------------------|
E|-------------------------------------------------------------|
   |    |    |    |    |    |    |    |    |    |    |    |    |
e|----------------7-9--10--------10--------12---10-------------|
B|-7---------7-------------------------------------------------|
G|------10-----------------------------------------------------|
D|-------------------------------------------------------------|
A|-------------------------------------------------------------|
E|-------------------------------------------------------------|
 | |    |    |    |    |    |    |    |    |    |    |    |    |
e|-------------------------------------------------------------|
B|---------------------------------------------------3----3----|
G|------3----3---------2----2---------4----6---------2----2----|
D|------4----4---------4----4---------5----5-------4---------4-|
A|----5---------5----5---------5----5------7--7-5--------------|
E|-6--------------5--------------3---------5-------------------|


   |    |    |    |    |    |    |    |    |    |    |    |    |    |    |    |
e|-6-6--6----6----6----8----6----6\5--5----8----------------------------------|
B|----------------------------------------------6--------------8-8--8----8----|
G|----------------------------------------------------------------------------|
D|----------------------------------------------------------------------------|
A|----------------------------------------------------------------------------|
E|----------------------------------------------------------------------------|
 | |    |    |    |    |    |    |    |    |    |    |    |    |    |    |    |
e|---------1--------------0--------------1------------------------------------|
B|------3----3---------1----1---------1----1------------3--------------6------|
G|----3---------3----3---------3----2---------2------2----2---------3----3----|
D|-------------------------------3--------------0-h3---------3----5---------5-|
A|-1--------------3-----------------------------------------------------------|
E|-------------------------------------------------------------3--------------|


   |    |    |    |    |    |    |    |    |    |    |    |    |    |    |     
e|------5----6----5-----------------------------6-6--6----6----6----8----6----|
B|-8--------------------------------------------------------------------------|
G|----------------------------------------------------------------------------|
D|----------------------------------------------------------------------------|
A|----------------------------------------------------------------------------|
E|----------------------------------------------------------------------------|
 | |    |    |    |    |    |    |    |    |    |    |    |    |    |    |    |
e|------------------------------------------------------1--------------3------|
B|---------5--------------3--------------4-----------3----3---------5----5----|
G|------3----3---------2----2---------2----2-------3---------3----3---------3-|
D|----5---------5----3---------3----3---------3-------------------------------|
A|-3--------------------------------------------1--------------3--------------|
E|----------------1--------------1--------------------------------------------|


   |    |    |    |    |    |    |    |    |    |    |    |    |    |    |    |    |    |     
e|-6\5--5----8---------------------------------------5----6----5-----------------------------|
B|----------------6--------------8-8--8----8----8--------------------------------------------|
G|-------------------------------------------------------------------------------------------|
D|-------------------------------------------------------------------------------------------|
A|-------------------------------------------------------------------------------------------|
E|-------------------------------------------------------------------------------------------|
 | |    |    |    |    |    |    |    |    |    |    |    |    |    |    |    |    |    |    |
e|---------1--------------1-----------------------------------------------------------0------|
B|------1----1---------3----3------------3--------------3--------------3-----------2----2----|
G|----2---------2----2---------2------3----3---------3----3---------3----3-------0---------0-|
D|-3--------------0-----------------5---------5----3---------3----2---------2----------------|
A|----------------------------------------------------------------------------0--------------|
E|-------------------------------3--------------1--------------0-----------------------------|


   |    |    |    |    |    |    |    |    |    |    |    |     
e|-10-7-----------10-7-----------10-7------7-------------------|
B|------10-------------10-------------10--------10-------------|
G|-------------------------------------------------------------|
D|-------------------------------------------------------------|
A|-------------------------------------------------------------|
E|-------------------------------------------------------------|
 | |    |    |    |    |    |    |    |    |    |    |    |    |
e|-------------------------------------------------------------|
B|------3----3---------2----2---------1----1---------0----0----|
G|------2----2---------2----2---------2----2---------0----0----|
D|----4---------4----3---------3----4---------4----0---------0-|
A|-5--------------4--------------3--------------2--------------|
E|-------------------------------------------------------------|


   |    |    |    |    |    |    |    |    |    |    |    |     
e|----------------9-10-7---------10--------10---9-7------------|
B|-7---------7---------------------------------------10--------|
G|------10-----------------------------------------------------|
D|-------------------------------------------------------------|
A|-------------------------------------------------------------|
E|-------------------------------------------------------------|
 | |    |    |    |    |    |    |    |    |    |    |    |    |
e|-------------------------------------------------------------|
B|-------------------------------------------------------------|
G|------3----3---------2----2---------4----4---------6----6----|
D|------4----4---------4----4---------5----5---------5----5----|
A|----5---------5----5---------5----5---------5----7---------7-|
E|-6--------------5--------------3--------------5--------------|


   |    |    |    |    |    |    |    |    |    |    |    |     
e|-10-7-----------10-7-----------10-7------7-------------------|
B|------10-------------10-------------10--------10-------------|
G|-------------------------------------------------------------|
D|-------------------------------------------------------------|
A|-------------------------------------------------------------|
E|-------------------------------------------------------------|
 | |    |    |    |    |    |    |    |    |    |    |    |    |
e|-------------------------------------------------------------|
B|------3----3---------2----2---------1----1---------0----0----|
G|------2----2---------2----2---------2----2---------0----0----|
D|----4---------4----3---------3----4---------4----0---------0-|
A|-5--------------4--------------3--------------2--------------|
E|-------------------------------------------------------------|


   |    |    |    |    |    |    |    |    |    |    |    |     
e|----------------7-9--10--------10--------12---10-------------|
B|-7---------7-------------------------------------------------|
G|------10-----------------------------------------------------|
D|-------------------------------------------------------------|
A|-------------------------------------------------------------|
E|-------------------------------------------------------------|
 | |    |    |    |    |    |    |    |    |    |    |    |    |
e|-------------------------------------------------------------|
B|---------------------------------------------------3----3----|
G|------3----3---------2----2---------4----6---------2----2----|
D|------4----4---------4----4---------5----5-------4---------4-|
A|----5---------5----5---------5----5------7--7-5--------------|
E|-6--------------5--------------3---------5-------------------|


   |    |    |    |    |    |    |    |    |    |    |    |    | 
e|--------------------------10-------------7--------------------|
B|-------------------------------------------10-----------------|
G|---------------------7----------------------------------10-9-7|
D|--------------------------------------------------------------|
A|--------------------------------------------------------------|
E|--------------------------------------------------------------|
 | |    |    |    |    |    |    |    |    |    |    |    |    ||
e|--------------------------------------------------------------|
B|------3----3------------------------3----3--------------------|
G|------2----2---------4--------------2----2---------4----------|
D|----4---------4------5------------4---------4------5----------|
A|-5-----------------5-----------5-----------------5------------|
E|----------------3-----------------------------3---------------|


        
Comments

No comments yet