Gametabs
Home
Tabs
Random

Lakeside Laboratory

Average rating: No ratings

Composer:

Tabber:

Style:

Instrument:

Created: December 09, 2010 at 12:00 AM

            Lakeside Laboratory
Legend of Zelda: Ocarina of Time
Koji Kondo
Link Strife07
12/9/10



e|----------------2----2---------------|
B|--3--3--4--7----4----4-3-------------|
G|-------------------------------------|
D|-------------------------------------|
A|-------------------------------------|
E|-------------------------------------|

e|------------------2------------------|
B|--3--4--7----7-7--4--3---------------|
G|-------------------------------------|
D|-------------------------------------|
A|-------------------------------------|
E|-------------------------------------|

e|--6--6--5--5--3--3---3-5-3-----------|
B|-------------------------4-----------|
G|-------------------------------------|
D|-------------------------------------|
A|-------------------------------------|
E|-------------------------------------|x2

e|--2--2-----2--2----------------------|
B|--------4-----3---4-3----------------|
G|-------------------------------------|
D|-------------------------------------|
A|-------------------------------------|
E|-------------------------------------|

e|--2--2-----2--2----------------------|
B|--------4-----3----------------------|
G|-------------------------------------|
D|-------------------------------------|
A|-------------------------------------|
E|-------------------------------------|

e|-------------------------------------|
B|--------3----------------------------|
G|--0-2-3--0---------------------------|
D|-------------------------------------|
A|-------------------------------------|
E|-------------------------------------|

Repeat and enjoy!

Rate and comment!
        
Comments

No comments yet