Gametabs
Home
Tabs
Random

Kokiri Forest

Average rating: 4.875

8 ratings

Composer:

Tabber:

Style:

Created: September 30, 2007 at 12:00 AM

            Kokiri Forest
The Legend of Zelda: Ocarina of Time
Composed by Koji Kondo

Guitar
     Q    E   Q    Q.        Q     Q     Q     Q
E||----------10----8------|--L----10----11----13----|
B||-----------8----6------|--L-----8-----9----11----|
G||-----------7----5------|--L-----7-----8----10----|
D||-----------9----7------|--L-----9----10----12----|
A||-----------------------|-------------------------|
E||-----------------------|-------------------------|

         |-3-| |-3-| |-3-|
  Q    S S S S S S S S S S Q    S      E  E  E  E  E  E  E  E
-----------------------6-L-L----L-||---------------------------|
-----------------6---6------------||------8-----------6--------|
-----------7---7---7--------------||*-----9-----------7--------|
---------8---8--------------------||*--------------------------|
-------8--------------------------||---------------------------|
--6-------------------------------||---8-----8--8--6-----6--6--|

  E  E  E  E  E  E  E  E     E  E  E  E  E  E  E  E
--------------------------|-----8--------------------|
-----8-----------6--------|--8-----8--------------6--|
-----9-----------7--------|-----------9--7-----9-----|
--------------------------|-----------------8--------|
--------------------------|--------------------------|
--8-----8--8--6-----6--6--|--8-----8--8--6-----6--6--|

  S  S E  E  S S E  E  E  E     E   E  E  E  E  E  E   E
-----------------------------|---------------6-----6--10--|
--8-10-8-----6-8-6-----------|------------------6---------|
-----------------------9--7--|--9---------------7---------|
--------------------8--------|-----10---------------------|
-----------------------------|----------------------------|
--8-------8--8---6-----6--6--|--8------8--8--6-----6---6--|

  E  E  E  E  E  E  E  E      E  E  E  E  E  E  E  E
--8-----------------------|------8--------------------|
-----8-----8-----6--------|---8-----8--------------6--|
-----9-----------7--------|--10--9-----9--7-----9-----|
--------------------------|------------------8--------|
--------------------------|---------------------------|
--8-----8--8--6-----6--6--|---8-----8--8--6-----6--6--|

  S  S E  E  S S E  E  E  E     E   E  E  E  E  E  E   E
-----------------------------|---------------6-----6--10--|
--8-10-8-----6-8-6-----------|------------------6---------|
-----------------------9--7--|--9---------------7---------|
--------------------8--------|-----10---------------------|
-----------------------------|----------------------------|
--8-------8--8---6-----6--6--|--8------8--8--6-----6---6--|

  E  E  E  E  E  E  E  E     E  E  E  E  E  Q.        E  E  E  E  S S E  Q
--8-----------------------|--1-----------3---------|--1-----------3-----------|
-----8-----------6--------|--1-----------3---------|--1-----------3-----------|
-----9-----------7--------|------------------------|--------------------------|
--------------------------|-----------------0------|-----------2--0-2-0-------|
--------------------------|-----0--3--0--2---------|-----0--3------------2----|
--8-----8--8--6-----6--6--|------------------------|--------------------------|

  E  E  E  E  E  Q.        E  E  E  E  S S E  Q       E  E  E  E  E   Q.
--1-----------3---------|--4-----------6-----------|-----5--8--5--7--10------|
--1-----------3---------|--4-----------6-----------|--6-----------8----------|
------------------------|--------------------------|--5-----------7----------|
-----------------0------|--------------3-5-3--0----|--7-----------9----------|
-----0--3--0--2---------|-----3--5--6--------------|-------------------------|
------------------------|--------------------------|-------------------------|

  E  E  E   E   S  S  E   Q       E  E  E  E  E   Q.
-----5--8--12--10-12-10--------|-----5--8--5--7--10------|
--6-------------8--------12----|--6-----------8----------|
--5----------------------------|--5-----------7----------|
--7-------------9--------------|--7-----------9----------|
-------------------------------|-------------------------|
-------------------------------|-------------------------|

   E  E   E   E   S  S  E   Q        E  E  E  E  E  E  E  E
------8--10--11--13-15-13--------|--12-----------------------|
---9-------------11--------15----|------8-----------6--------|
---8-----------------------------|------9-----------7--------|
--10-------------12--------------|---------------------------|
---------------------------------|---------------------------|
---------------------------------|---8-----8--8--6-----6--6--|

  E  E  E  E  E  E  E  E     S  S  E  E  S S E  E  S S E
--------------------------|----------------------------0--|
-----8-----------6--------|--8-10--8-----6-8-6-----5-6----|
-----9-----------7--------|-------------------------------|
--------------------------|-------10------------8---------|
--------------------------|-------------------------------|
--8-----8--8--6-----6--6--|--8--------8--8---6-----6---6--|

  E  E  E   E   E  E   E  E      E   E  E  E  E  E  E  E
-----------------------------|----------------------------|
-----8-------------6---------|---8---------5-----6--------|
-----9-------------7------7--|-------------------7--------|
-----------12--10--8--10-----|--10---------5--------------|
-----------------------------|------10--------------------|
--8-----8---8---6------6--6--|---8------8--8--6-----6--6--|

   E   E  E   E  E  E  E  E     S  S E  E  S S E  E  S S E
-----------------------------|--8-10-8-----6-8-6-----5-6-5--|
-----------------------------|-------8----------------------|
--10----------9--------------|-------9------------7---------|
--12---------10-----8--------|------------------------------|
------10---------------------|------------------------------|
---8------8---8--6-----6--6--|--8-------8--8---6-----6---6--|

  E  E  E  E  E  E  E  E     E   E  E  E  E  E  E  E
--------------------------|---------------------------|
-----------8--6-----6--8--|---------------8-----------|
-----0-----------9--------|--9------------9-----------|
--------------------------|-----10-----------8--------|
-----------------8--------|-----10--------------------|
--8-----8--8--6-----6--6--|--8------8--8--6-----6--6--|

  Q    E  E  E  E  E  E
--6-----------------------||
--8-------------8---------||
--9-------------9--------*||
-------------------------*||
--------------------------||
--8----8--8--6-----6--6---||

Duration Legend
---------------
W - whole
H - half
Q - quarter
E - 8th
S - 16th
T - 32nd
X - 64th
. - note dotted
|-n-|  - n-tuplets

        
Comments

@Manny (July 22, 2007 at 10:43 PM)

my god, how do you come up with this stuff?! Its awesome!


@ArchTheDark (August 12, 2008 at 3:38 PM)

lol begin is impossible xD


@smiley (July 02, 2009 at 5:11 PM)

I did it. I've mastered this tab. I FEEL proud.


@chandler63 (October 08, 2010 at 3:37 AM)

if someone could post a video on how to finger this thatd be awesome. im so lost


@Gnortti (January 08, 2014 at 7:27 PM)

shh*t this is good. i just cant do it lol. where's navi when you need her