Gametabs
Home
Tabs
Random

Kokiri Forest

Average rating: 4.889

9 ratings

Composer:

Tabber:

Style:

Created: September 30, 2007 at 12:00 AM

            Kokiri Forest
The Legend of Zelda: Ocarina of Time
Composed by Koji Kondo

8/5/06

e--------------1
B--3--1---3--4--
G---------------
D---------------
A---------------
E---------------

e----8---0----0--1-3h5p3-1h3p1--0---0--
B--8---8---3----------------------3---1
G--------------------------------------
D--------------------------------------
A--------------------------------------
E-------------------------------------- x2

e------------------0-------------------------1--------------------0
B----1---0-3-----1---3-0-----1---0-3---1-3-4----3
G--2---2-------2-----------2---2----------------- Play twice then ^
D------------------------------------------------
A------------------------------------------------
E------------------------------------------------

e--3h5p3--1h3p1--0h1p0-----------------
B-----------------------3-1---1-3-1----
G---------------------------3---------0
D--------------------------------------
A--------------------------------------
E--------------------------------------

e--8h10p8--6h8p6--5h6p5--3-1-0-1-3--0-----3-----6
B------------------------------------------------
G------------------------------------------------
D------------------------------------------------
A------------------------------------------------
E------------------------------------------------

        
Comments

@Zack (March 01, 2007 at 11:10 PM)

after the second line you can put this...

e---------------
B-------3-------
G-3-2-3---5--2--
D---------------
A---------------
E---------------

@Zack (March 01, 2007 at 11:10 PM)

but it didnt turn out right


@nozzie (April 29, 2007 at 4:46 AM)

sounds right


@nathan (April 30, 2007 at 2:51 PM)

e---------------
B-------3-------
G-3-2-3---5--0--
D---------------
A---------------
E---------------

sounds abit better


@PdR (May 19, 2007 at 3:57 PM)

nice is my intro version

e-----------
B-----------
G-6-4-6-7-9-
D-6-4-6-7-9-
A-4-2-4-5-7-
E-----------

;)


@chatcat666 (May 21, 2007 at 12:57 PM)

----------
--------3-
5-3-5-6-3-
5-1-5-6-1-
3-1-3-4---
----------

my intro :D


@TheOnlyOne (May 23, 2007 at 11:15 AM)

after the:

e----8---0----0--1-3h5p3-1h3p1--0---0--
B--8---8---3----------------------3---1
G--------------------------------------
D--------------------------------------
A--------------------------------------
E--------------------------------------

I'd but in:

e---------------
B---------------
G-2---0-2-5-2---
D---------------
A---------------
E---------------

Think it sounds good


@TheOnlyOne (May 23, 2007 at 11:47 AM)

oh sorry didn't formated it

but you can read it this way, don't you?


@archard (May 23, 2007 at 5:28 PM)

I fixed the formatting for you. See the link below the submit comment button for formatting rules.


@Spyder (June 22, 2007 at 5:37 PM)

Another awesome one archard!!