Gametabs
Home
Tabs
Random

Kakariko Village

Average rating: 4.583

24 ratings

Composer:

Tabber:

Style:

Instrument:

Created: June 12, 2011 at 12:00 AM

                                           Kakariko village                                 


The legend of Zelda: Ocarina of Time
Composed by: Koji Kondo
Tabbed by: Alfa_ice 11-06-2011
Standard Tuning: EADGBe

     Q    Q    Q    Q       Q    Q    Q    Q       Q    Q    Q    Q     
E||----------------------|----------------------|----------------------|
B||----------------------|----------------------|----------------------|
G||------------0---------|----------------------|-----------------0----|
D||-------2--------------|-------2----0----3----|--0-------------------|
A||--3--------------0----|--3-------------------|------------0----2----|
E||----------------------|----------------------|-------3--------------|


  Q    Q    Q    Q       Q    Q    Q    Q       Q    Q    Q    Q     
-----------------0----|------------3---------|----------------------|
--1-------------------|-------1--------------|----------------------|
------------0---------|----------------------|-----------------0----|
-------2--------------|-------2----0----3----|--0-------------------|
--3---------3----0----|--3-------------------|------------0----2----|
----------------------|----------------------|-------3--------------|


  Q    Q    Q    Q       Q    Q    Q    Q       Q    Q    Q    Q     
-----------------0----|------------3---------|-----------------3----|
--1-------------------|-------1--------------|--1----0--------------|
------------0---------|----------------------|------------2----0----|
-------2--------------|-------2----0----3----|----------------------|
--3---------3----0----|--3-------------------|----------------------|
----------------------|----------------------|----------------------|


  Q    Q    Q    Q       Q    Q    Q    Q       Q    Q    Q    Q     
--5-------------------|-------5----3---------|-------0--------------|
-----------------0----|----------------------|----------------------|
-------5---------0----|----------------------|----------------------|
--3---------3---------|-----------------2----|--0-------------------|
----------------------|--0----2----3---------|-------4----2----4----|
----------------------|----------------------|----------------------|


  Q    Q    Q    Q       Q    Q    Q    Q       Q    Q    H         
--0--------------0----|----------------------|---------------------|
----------------------|-------3----1---------|---------------------|
----------------------|----------------------|------------0--------|
--0-------------------|----------------------|---------------------|
-------0--------------|--0----2----3---------|-------3-------------|
------------1----3----|-----------------3----|--0------------------|


  Q    Q    Q    Q       Q    Q    Q    Q       Q    Q    Q    Q     
-----------------0----|------------3---------|----------------------|
--1-------------------|-------1--------------|----------------------|
------------0---------|----------------------|-----------------0----|
-------2--------------|-------2----0----3----|--0-------------------|
--3---------3----0----|--3-------------------|------------0----2----|
----------------------|----------------------|-------3--------------|


  Q    Q    Q    Q       Q    Q    Q    Q       Q    Q    Q    Q     
-----------------0----|------------3----5----|--3----0---------3----|
--1-------------------|-------1--------------|------------1---------|
------------0---------|----------------------|-------0---------0----|
-------2--------------|-------2----0---------|----------------------|
--3---------3----0----|--3-------------------|----------------------|
----------------------|----------------------|----------------------|


  Q    Q    Q    Q       Q    Q    Q    Q       Q    Q    Q    Q     
--5-------------------|-------5----3---------|-------0--------------|
-----------------0----|----------------------|----------------------|
-------5--------------|----------------------|----------------------|
--3---------3---------|-----------------2----|--0-------------------|
----------------------|--0----2----3---------|-------4----2----4----|
-----------------3----|----------------------|----------------------|


  Q    Q    Q    Q       Q    Q    Q    Q       Q    Q    Q    Q     
--0--------------0----|----------------------|----------------------|
----------------------|-------3----1---------|-----------------1----|
----------------------|----------------------|----------------------|
--0-------------------|----------------------|------------0----2----|
-------0--------------|--0----2----3---------|-------3--------------|
------------1----3----|-----------------3----|--0-------------------|


  Q    Q    Q    Q       Q    Q    Q    Q       Q    Q    Q    Q     
--0-------------------|----------------------|----------------------|
-----------------0----|-------3----1---------|----------------------|
----------------------|----------------------|--0----0--------------|
----------------------|----------------------|------------0----2----|
-------0----3---------|-------0--------------|-------3--------------|
--1--------------1----|--3---------0----3----|----------------------|


  Q    Q    Q    Q       Q    Q    Q    Q       Q    Q    Q    Q     
----------------------|----------------------|----------------------|
----------------------|----------------------|-----------------1----|
------------2---------|-------0--------------|----------------------|
--3--------------3----|------------2---------|----------------------|
--5----2----0---------|--0----2----3---------|-------1----0---------|
-----------------3----|-----------------0----|--3--------------3----|


  Q    Q    Q    Q       Q    Q    Q    Q       Q    Q    Q    Q     
----------------------|----------------------|-------3--------------|
--1--------------0----|-------3----1---------|----------------------|
----------------------|----------------------|--0--------------2----|
----------------------|----------------------|------------2---------|
-------0----3---------|-------2--------------|-------4--------------|
--1--------------1----|--3---------0----3----|--0-------------------|


  Q    Q    Q    Q       Q    Q    E  E  E  E    
--1--------------0----|------------------------||
----------------------|-------3-------------1--||
--2-------------------|------------------0-----||
--0-------------------|-------3-------2--------||
----------------------|--0----2----3-----------||
-------0----1----3----|------------------------||




Duration Legend
---------------
W - whole
H - half
Q - quarter
E - 8th
S - 16th
T - 32nd
X - 64th
. - note dotted
|-n-|  - n-tuplets



        
Comments

@Brave Toaster (June 16, 2011 at 7:15 PM)

This sounds AWESOME! The bass line is the funnest thing to play ever. I loved it! Thanks for sharing!


@lognar (June 25, 2011 at 9:36 PM)

i really like your style, you arrange really well! thank you :)


@Monk E (January 15, 2012 at 3:40 AM)

I can't stop playing this! It's so much fun and sounds so great. Thanks!!


@Jman_nunez (February 14, 2012 at 9:33 PM)

Very nice! loving the heck out of it.


@vaporeonfarts (May 08, 2012 at 8:19 AM)

the forth line from the bottom should be the low E on F accompanied with the B string on C, on the first count, i believe.


@Jasmydae (July 13, 2012 at 5:49 PM)

This is the best Kakariko tab I've seen. Brilliant! I made a video recording of it.


@Murzain (August 04, 2012 at 4:25 PM)

I highly recommend playing this with a capo on the 2nd fret. I think it sounds really nice that way. Anyway, probably the best tab I've seen for this song. Keep up the good work!


@H3R0 0F TIM3 (January 15, 2013 at 10:12 PM)

This was really great. It's simple and it sounds beautiful.


@MisterM2402 (February 27, 2013 at 1:17 AM)

Great arrangement, but should really be in 3/4 time; if you play it in 4/4 it just sounds wrong haha