Gametabs
Home
Tabs
Random

Kakariko Village

Average rating: 4.000

5 ratings

Composer:

Tabber:

Style:

Instrument:

Created: October 08, 2008 at 12:00 AM

            Zelda ocarina of time          Standard tuning with Capo on 1st fret
Kakariko Village
tabbed by me!!!! (^^)y
music by koji kondo


-------------------0---------0--0--2-----2---------------2--0-------------------------------------
---------0-2-----2-0-------0-----------3--------------------0----------2-----2-2------2-------------
---2---2-------2---1-----1-----------2------2--1------------1----1---------2--------2----------------
-2---2-------2---------2-----------0----------------2----------2---2-----2--------2----------------
---0-------0---------2----------------------------2---2----------------4-------0-----------------
-------------------0---------------------------0------------0----------------------------------
[
-----------------------------------0---------0--0--2-----2--------------2--0-----------------------
--0---------------------0-2-----2--0-------0-----------3-------------------0------------------------
----2----2--------2---2-------2----1-----1-----------2------2--1-----------1----1-----------------------
------2--------2----2-------2----------2-----------0---------------2----------2---2------------------
---------0--------0-------0----------2---------------------------2---2----------------------------
-----------------------------------0---------------------------0-----------0-------------------
[
--------------------------------------------------------------------------------------------
-2-----2-2-----2--0------------------------------------------------------------------------------
-----2-------2-------2----2---------------------------------------------------------------------
---2-------2-----------2-----------------------------------------------------------------------
-4-------0----------------0--------------------------------------------------------------------
--------------------------------------------------------------------------------------------
[
--------------------------------------------------------------------------------------------
------------------0-----------------------------------------------0---------------------------
-2-----2-1-----1-----2-------------------------2-----2--1------1------2-------2------------------------
-----0-------2---------2---2--0-----0--2-----------0---------2----------2---2---2-----------------------
---0-------2---------0---0-------4--------4------0---------2----------0---0---------------------------
-2-------0--------------------0-----0-----0----2--------0------------------------------------------
[
-0------0-------------------------------------------------------------------------------------
-0----0------3-----3--2-----2--0-------------------------------------------------------------------
-1--1------------2--------2-------2--------------------------------------------------------------
---------------0--------2---------2------------------------------------------------------------
----------------------0-----------0-----------------------------------------------------------
-0-----------2--------------------------------------------------------------------------------
[
-------------------0---------0--0--2-----2---------------2--0-------------------------------------
---------0-2-----2-0-------0-----------3--------------------0----------2-----2-2------2-------------
---2---2-------2---1-----1-----------2------2--1------------1----1---------2--------2----------------
-2---2-------2---------2-----------0----------------2----------2---2-----2--------2----------------
---0-------0---------2----------------------------2---2----------------4-------0-----------------
-------------------0---------------------------0------------0----------------------------------
[
-----------------------------------0---------0--0--2-----2--------------2--0-----------------------
--0---------------------0-2-----2--0-------0-----------3-------------------0------------------------
----2----2--------2---2-------2----1-----1-----------2------2--1-----------1----1-----------------------
------2--------2----2-------2----------2-----------0---------------2----------2---2------------------
---------0--------0-------0----------2---------------------------2---2----------------------------
-----------------------------------0---------------------------0-----------0-------------------
[
--------------------------------------------------------------------------------------------
-2-----2-2-----2--0------------------------------------------------------------------------------
-----2-------2-------2----2---------------------------------------------------------------------
---2-------2-----------2-----------------------------------------------------------------------
-4-------0----------------0--------------------------------------------------------------------
--------------------------------------------------------------------------------------------
[
--------------------------------------------------------------------------------------------
------------------0-----------------------------------------------0---------------------------
-2-----2-1-----1-----2-------------------------2-----2--1------1------2-------2------------------------
-----0-------2---------2---2--0-----0--2-----------0---------2----------2---2---2-----------------------
---0-------2---------0---0-------4--------4------0---------2----------0---0---------------------------
-2-------0--------------------0-----0-----0----2--------0------------------------------------------
[
-0------0-------------------------5------------------------------------------------------------
-0----0------3-----3--2-----2--0--2----------------------------------------------------------------
-1--1------------2--------2-------2--------------------------------------------------------------
---------------0--------2---------2------------------------------------------------------------
----------------------0-----------0-----------------------------------------------------------
-0-----------2--------------------------------------------------------------------------------
[

        
Comments

@slayer1578 (October 29, 2008 at 11:05 PM)

sweat first 1 to commit and rate its awsome tab 2 u had a lot of effert in it to probally not for beginers though


@Hypomani (June 12, 2009 at 7:41 PM)

This one is a both strange and really awesome. :) It's really nice with an arrange when you're fed up with transcriptions. I wish you'd separate the bars, though.


@musenji (October 17, 2014 at 3:32 PM)

Really, really needs measures and intended rhythm.