Gametabs
Home
Tabs
Random

Kakariko Village

Average rating: 4.250

4 ratings

Composer:

Tabber:

Style:

Instrument:

Created: June 04, 2020 at 12:00 AM

            My 5th guitar arrangement. MP3 included for rhythm reference

e|---------------------|------0--------------|------3--------------|---------------------|
B|------1--------------|---------------------|-1-------------------|---------------------|
G|-0-------------------|-0--------------2----|---------------------|----------------0----|
D|-----------2---------|-----------2---------|------0----3----0----|---------------------|
A|------3---------3----|------0--------------|---------------------|------0----2---------|
E|---------------------|---------------------|---------------------|-3-------------------|


e|---------------------|-0-------------------|-3-------------------|---------------------|
B|-1-------------------|----------------1----|---------------------|---------------------|
G|----------------0----|---------------------|---------------------|---------------------|
D|------2--------------|------2--------------|-0----3----0---------|-----------0----3----|
A|-3---------3---------|-0---------0---------|---------------------|-0----2--------------|
E|---------------------|---------------------|----------------3----|---------------------|


e|----------------5----|----------------0----|----------------5----|------3--------------|
B|------8--------------|-----------5---------|-----------0---------|---------------------|
G|---------------------|------5--------------|------0--------------|----------------0----|
D|-5---------7---------|-7-------------------|-0-------------------|-----------2---------|
A|----------------8----|---------------------|---------------------|-3----3--------------|
E|---------------------|----------------3----|---------------------|---------------------|


e|------0--------------|------0--------------|-0----0--------------|---------------------|
B|-0-------------------|-1--------------3----|---------------------|-3----1--------------|
G|----------------2----|-----------2---------|---------------------|----------------0----|
D|-----------2---------|------0--------------|----------------0----|-----------2---------|
A|------0--------------|---------------------|-----------2---------|------3--------------|
E|---------------------|---------------------|------3--------------|---------------------|


e|---------------------|---------------------|---------------------|---------------------|
B|-----------1----1----|----------------0----|-----------3----1----|---------------------|
G|---------------------|-----------2---------|---------------------|----------------0----|
D|-2-------------------|------3--------------|------0--------------|-2---------2---------|
A|------3--------------|-3-------------------|-2--------------3----|------3---------0----|
E|----------------1----|----------------3----|---------------------|---------------------|


e|---------------------|---------------------|---------------------|---------------------|
B|---------------------|---------------------|-----------0---------|---------------------|
G|----------------2----|-----------2----2----|----------------0----|---------------------|
D|-2---------2---------|------3--------------|---------------------|------0--------------|
A|------0--------------|-3-------------------|---------------------|-2---------2---------|
E|----------------1----|---------------------|-0----1---------3----|----------------3----|


e|---------------------|---------------------|---------------------|------3--------------|
B|-1----1--------------|------0--------------|-3----1--------------|---------------------|
G|---------------------|-2-------------------|----------------0----|---------------------|
D|----------------3----|----------------0----|-----------2---------|-2--------------0----|
A|-----------3---------|-----------2---------|------3--------------|-----------2---------|
E|------1--------------|------3--------------|---------------------|------3--------------|


e|------0--------------|-0----0--------------|---------------------|-----------------|
B|----------------3----|---------------------|-3----1--------------|-----------------|
G|-----------2---------|---------------------|----------------0----|-----------------|
D|-3----0--------------|----------------0----|-----------2---------|-2---------------|
A|---------------------|-----------2---------|------3--------------|------3----------|
E|---------------------|------3--------------|---------------------|-----------------|

        
Comments

No comments yet