Gametabs
Home
Tabs
Random

Kaepora Gaebora

Average rating: 4.750

4 ratings

Composer:

Tabber:

Style:

Instrument:

Created: August 23, 2009 at 12:00 AM

            Song: Kaepora Gaebora's Theme	
Game: The Legend of Zelda: Ocarina of Time
Composer(s): Koji Kondo
Tabber: Rocker
Date: 8/23/09


   intro
     V     *
e------------------------1-3----3-8-6-4-3-1-----------
B-3-1-1-3------------3-4-----1--------------4-3-1-0---
G----------5-4-5-4-5--------------------------------0-
D-5-3-3-5---------------------------------------------
A-----------------------------------------------------
E-----------------------------------------------------

e---------------1-3----1-4-3-1------------------------
B-----------3-4-----1----------4-3-3-1-1--------------
G-5-4-5-4-5-------------------------------------------
D-----------------------------------------------------
A-----------------------------------------------------
E-----------------------------------------------------

Repeat from * once then:

e-6-3-4-6--3-4-6--11-10-8-6--8-4-6-4--3-4-------------
B------------------------------------------6-3-4-6----
G-----------------------------------------------------
D-----------------------------------------------------
A-----------------------------------------------------
E-----------------------------------------------------

e--------10-8-6---------------------------------------
B-3-4-6--------9-9-11-9-8-6-8-------------------------
G-----------------------------------------------------
D-----------------------------------------------------
A-----------------------------------------------------
E-----------------------------------------------------

e-6-3-4-6--3-4-6--11-10-8-6--8-4-6-4--3-4-------------
B------------------------------------------6-3-4-6----
G-----------------------------------------------------
D-----------------------------------------------------
A-----------------------------------------------------
E-----------------------------------------------------

e----------------10-8-6-------------------------------
B-6-3-4-6--3-4-6--------9-8-6-4-3--4-4----------------	<---Hold
G-----------------------------------------------------
D-----------------------------------------------------
A-----------------------------------------------------
E-----------------------------------------------------

Repeat from * at beginning til the end of time
        
Comments

@ladybug95 (November 07, 2009 at 3:11 AM)

I like this version a lot! Good job


@Jlag (October 19, 2011 at 8:37 AM)

This tab sounds SO good ^_^


@Rigbone24 (May 11, 2012 at 12:26 AM)

As much as this song pissed me off when that stupid owl would show up in the randomest places I couldn't help but learn this catchy tune thanks and good work!