Gametabs
Home
Tabs
Random

Kaepora Gaebora

Average rating: 4.500

6 ratings

Composer:

Tabber:

Style:

Instrument:

Created: January 24, 2011 at 12:00 AM

            

Any questions or suggestion are welcome.

my arrangement of Kaepora Gaebora :D
standard tuning
music by Koji Kondo
video link - http://www.youtube.com/watch?v=v2gCHTaI6G0


Track 1 (Capo 3)


     Q    E  Q    E  E  E     E  E  Q    Q    Q       Q    E  E  E  E  Q     
E||------------------------|--------0---------0----|--5----3--1--0----------|
B||---------------------0--|--1--3--1--------------|----------------3--1----|
G||--2----1--2----1--2-----|--------2----2----0----|------------------------|
D||----------2-------------|--2----------2---------|-------------2----------|
A||--0---------------0-----|--------0----0---------|-------2----------------|
E||------------------------|------------------0----|-------------------0----|


  E  E  Q    Q    Q       E  Q    E  E  E  E  E     Q    Q    Q    Q     
-----------------------|-------------------------|--0--------------1----|
--0--------------------|----------------0--1--3--|--1---------3----3----|
-----2--1---------2----|--1--2----1--2-----------|--2----2--------------|
-------------2---------|-----2-------------2-----|-------2----0---------|
------------------0----|-------------0-----------|--0----0--------------|
--------0--------------|-------------------------|----------------------|


  E  E  E  E  Q    E  E     W                   E  E  E  E  E  E  E  E   
--0----------------------|-------------------|--3-----0--1--3-----0--1--|
--1--3--1--0--0----------|-------------------|--------------------------|
--------2-----1----2--2--|-------------------|-----0--0--------0--0-----|
----------------------2--|-------------------|--2-----------2-----------|
--0-------------------0--|-------------------|--------------------------|
--------------0----------|-------------------|--------------------------|


  E  E  E  E  E  E  Q       E  E  E  E  E  E  E  E     E  E  E  E  E  E  E  E   
--3-----------5----------|--5-----------------------|--------------5-----------|
--------1--0--5-----8----|--6-----6--8--6-----5-----|--6--------6-----6--------|
-----0--0-----5----------|--7--7--------7-----7-----|--7-----7-----------7-----|
--2--------------7-------|-----------------7-----7--|-----7-----------------7--|
--------------0----------|--5-----------5-----------|--5-----------------------|
-------------------------|--------------------------|--------------------------|


  E  E  E  E  E  E  E  E     E  E  E  E  Q    Q       E  E  E  E  E  E  Q     
--1--------0--1--------0--|--1-----------3---------|--3-----0--1--0----------|
--3-----3-----3-----3-----|--------0-----3----6----|--1--------------1--3----|
-----------------2--------|-----------2--4---------|--0--0--------0-----0----|
--0-----------------------|--------0-----5---------|--2----------------------|
-----0--------3-----------|-----0------------------|-------------------------|
--------------------------|--3---------------------|-------------------------|


  E  E  E  E  E  E  E  E     E  E  E  E  E  E  E  E     E  E  E  E  E  E  Q     
--0--------0--3--0--------|--3-----0--1--3-----0--1--|--3-----------5----------|
--1-----1-----------1-----|--------------------------|--------1--0--5-----8----|
--0--0-----------------0--|-----0--0--------0--0-----|-----0--0-----5----------|
--------------------------|--2-----------2-----------|--2--------------7-------|
--------------------------|--------------------------|--------------0----------|
--0-----------------------|--------------------------|-------------------------|


  E  E  E  E  E  E  E  E     E  E  E  E  E  E  E  E   
--5-----------------------|--------------5-----------|
--6-----6--8--6-----5-----|--6--------6-----6--------|
--7--7--------7-----7-----|--7-----7-----------7-----|
-----------------7-----7--|-----7-----------------7--|
--5-----------5-----------|--5-----------------------|
--------------------------|--------------------------|


  E  E  E  E  E  E  E  E     E  E  E  E  Q    E  E     Q    E  E  Q    Q     
--1--------0--1--------0--|--1-----------3-------0--|--0--------------------|
--3-----3-----3-----3-----|--------0-----3----6-----|-------3--1--0----1----|
-----------------2--------|-----------2--4----------|--4----------0---------|
--0-----------------------|--------0-----5----------|--5----------0---------|
-----0--------3-----------|-----0-------------------|-------------2---------|
--------------------------|--3----------------------|-------------3---------|


  W                                      
-------------------|-------------------||
--1----------------|-------------------||
--0----------------|-------------------||
--2----------------|-------------------||
--3----------------|-------------------||
-------------------|-------------------||




Duration Legend
---------------
W - whole
H - half
Q - quarter
E - 8th
S - 16th
T - 32nd
X - 64th
. - note dotted
|-n-|  - n-tuplets


Tablature Legend
----------------
L - tied note
x - dead note
g - grace note
(n) - ghost note
> - accentuded note
NH - natural harmonic
AH - artificial harmonic
TH - tapped harmonic
SH - semi harmonic
PH - pitch harmonic
h - hammer on
p - pull off
b - bend
br - bendRelease
pb - preBend
pbr - preBendRelease
brb - bendReleaseBend
\n/ - tremolo bar dip
\n - tremolo bar dive
-/n - tremolo bar Release up
/n\ - tremolo bar inverted dip
/n - tremolo bar return
-\n - tremolo bar Release down
S - shift slide
s - legato slide
/ -  slide into from below or out of upwards
\ -  slide into from above or out of downwards
~ - vibrato
W - wide vibrato
tr - trill
TP - tremolo picking
T - tapping
S - slap
P - pop
< - fade in
^ - brush up
v - brush down
        
Comments

@Brave Toaster (January 26, 2011 at 4:47 AM)

Excelent! I liked playing it a lot. Good arranging, and I liked that part where you changed a bit. Congratulations for your work, and thanks for sharing!


@auriplane (October 09, 2014 at 1:31 PM)

This would fix the rhythm in the opening:

Q.     E  Q.     E     E  E  E  E  Q    Q       Q    Q    E  E  E  E
E||----------------------|--------------0---------|--0----5----3--1--0-----|
B||----------------------|-----0--1--3--1---------|---------------------3--|
G||--2------1--2------1--|--2-----------2----2----|--0---------------------|
D||------------2---------|--------2----------2----|------------------2-----|
A||--0-------------------|--0-----------0----0----|------------2-----------|
E||----------------------|------------------------|--0---------------------|

Q    E  E  Q    Q       Q.     E  Q.     E     E  E  E  E  Q    Q
-----------------------|----------------------|--------------0---------|
--1----0---------------|----------------------|-----0--1--3--1---------|
----------2--1---------|--2------1--2------1--|--2-----------2----2----|
------------------2----|------------2---------|--------2----------2----|
-----------------------|--0-------------------|--0-----------0----0----|
--0----------0---------|----------------------|------------------------|

Q    Q    E  E  E  E     Q.     E  H
-------1----0-----------|-----------------------|
--3----3----1--3--1--0--|--0--------------------|
------------------2-----|--1------2--2----------|
--0---------------------|------------2----------|
------------0-----------|------------0----------|
------------------------|--0--------------------|

@xxtazy (November 26, 2014 at 10:34 PM)