Gametabs
Home
Tabs
Random

Kaepora Gaebora

Average rating: 4.889

9 ratings

Composer:

Tabber:

Style:

Instrument:

Created: April 24, 2012 at 12:00 AM

                                            Kaepora Gaebora                                 

The legend of Zelda: Ocarina of time.
Tabbed by: Alfa_Ice
Music by: Koji Kondo
Standard tuning: EADGBE


        Intro
                                       NH                                                             
   Q           E     E     Q           Q                                                            
e |----------------------------------<>15----------|
B |3-----------1-----1-----3-----------------------|
G |0-----------0-----0-----0-----------------------|
D |------------------------------------------------|
A |------------------------------------------------|
E |3-----------1-----1-----3-----------------------|

        Part A
                                                                                                    
   E.       S  E.       S  S  S  S  S  E     E      E     E     S  S  S  S  E     S  S  E     E      
e |------------3-----------------------3-----------|------------6-----------------------3-----------|
B |------------------------------------------------|------------------------------------------------|
G |------------------------------------0-----------|0-----5-----3-----------------------------------|
D |---------------------------0--1--3--------------|---------------6--5--3--------0-----------------|
A |3--------2--3--------2--3-----------------3-----|------------------------6--------3--2-----------|
E |------------------------------------------------|------------------------------------------3-----|
                                                                                                    
                                                                                                    
   E.       S  E.       S  S  S  S  S  E     E      E     E     S  S  S  S  E.       S  Q           
e |------------3-----------------------3-----------|------------3-----------------------------------|
B |------------------------------------------------|------------------------------------------------|
G |------------------------------------0-----------|------1-----0-----------------------5-----------|
D |---------------------------0--1--3--------------|3--------------3--1--0--0-----------------------|
A |3--------2--3--------2--3-----------------3-----|---------------------------------3--3-----------|
E |------------------------------------------------|------------------------------------------------|
                                                                                                    
                                                                                                    
   E.       S  E     S  S  S  S  S  S  E     E      E     E     S  S  S  S  E     S  S  E     E     
e |------------------------------------8-----------|11----------10----8-----7-----------3-----------|
B |------------------------8-----------------------|------------------------------------------------|
G |8-----------------10----------------------------|------------------------------------------------|
D |------------------------------------------------|------10----8-----------------0-----------------|
A |---------------------------------8--10----------|10-------------11-10-8--6--------3--2-----------|
E |8--------7--8--------7--8--10-11----------8-----|------------------------------------------3-----|
                                                                                                    
                                                                                                    
   E.       S  E     S  S  S  S  S  S  E     E      E     E     S  S  S  S  E.       S  Q            
e |------------------------------------8-----------|10----------7-----------7-----------8-----------|
B |------------------------8-----------------------|------------------------------------------------|
G |8-----------------10----------------------------|------------------------------------------------|
D |------------------------------------------------|------6-----5-----------------------------------|
A |---------------------------------8--10----------|8--------------8--6--5--5-----------------------|
E |8--------7--8--------7--8--10-11----------8-----|---------------------------------8--8-----------|
                                                                                                    
        Part B
                                                                                                    
   E     S  S  E     S  S  E     S  S  E     E     |E     S  S  E     E     Q           Q            
e |6-----------6-----------6-----11-10-8-----6-----|8-----------------------------------------------|
B |------8--9--------8--9--------------------------|------9--11-9-----8-----9-----------------------|
G |------------------------------------------------|------------------------------------------------|
D |------------------------------------------------|------------------------------------------------|
A |6-----------------------6-----------------------|8-----------------------8-----------------------|
E |------------------------------------------------|------------------------------------8-----------|
                                                                                                    
                                                                                                    
   E     S  S  E     S  S  E     S  S  E     E      E     S  S  E     E     Q           Q            
e |------------------------------10-8--6-----------|------6-----------------------------------------|
B |6-----------6-----------6-----------------9-----|9--------9--8-----6-----8-----------------------|
G |------7--8--------7--8--------------------------|------------------------------------------------|
D |------------------------------------------------|------------------------------------------------|
A |------------------------------------------------|6-----------------------6-----------------------|
E |6-----------------------6-----------------------|------------------------------------6-----------|
                                                                                                    
                                                                                                    
   E     S  S  E     S  S  E     S  S  E     E     |E     S  S  E     E     Q           Q            
e |6-----------6-----------6-----11-10-8-----6-----|8-----------------------------------------------|
B |------8--9--------8--9--------------------------|------9--11-9-----8-----9-----------------------|
G |------------------------------------------------|------------------------------------------------|
D |------------------------------------------------|------------------------------------------------|
A |6-----------------------6-----------------------|8-----------------------8-----------------------|
E |------------------------------------------------|------------------------------------8-----------|
                                                                                                    
                                                                                        NH          
   E     S  S  E     S  S  E     S  S  E     E      E     S  S  E     E     Q           Q            
e |------------------------------10-8--6-----------|------------------------------------------------|
B |6-----------6-----------6-----------------9-----|8-----6-----------------8-----------------------|
G |------7--8--------7--8--------------------------|8--------8--7-----8-----8---------<>(20)--------|
D |------------------------------------------------|------------------------8-----------------------|
A |------------------------------------------------|6-----------------------6-----------------------|
E |6-----------------------6-----------------------|------------------------------------------------|


   NH                                                                                                    
   W                                                                                                
e |------------------------------------------------|
B |------------------------------------------------|
G |------------------------------------------------|
D |<>(20)------------------------------------------|
A |------------------------------------------------|
E |------------------------------------------------|




Duration Legend
---------------
W - whole
H - half
Q - quarter
E - 8th
S - 16th


Tablature Legend
----------------
L - tied note
(n) - ghost note
NH - natural harmonic



        
Comments

@Defeature (May 24, 2012 at 3:35 AM)

Nice job on this, the timing is kinda hard to get used to. Then again I'm just new to fingerstyle. I love this tab though and I'm determined to learn it. I'm kinda having issues with letting the lead melody ring, due to moving around on the lower strings with the original melody and having to switch positions in order to play the original melody. I'm such a noob. D:


@omzdog (October 20, 2013 at 8:24 PM)

Do you want to listen to this tab again?

No ~~> Yes


@BigHeadClan (October 20, 2013 at 10:02 PM)

^^^^^

Genius Farmer.... Genius


@Zbastian (September 05, 2018 at 10:52 AM)

Good job man