Gametabs
Home
Tabs
Random

House

Average rating: 4.800

5 ratings

Composer:

Tabber:

Style:

Instrument:

Created: July 12, 2013 at 12:00 AM

            House                                              
The Legend of Zelda: Ocarina of Time
Koji Kondo
JordanVS


*Capo on the 5th fret 


        ^                                                                           
     E  E  E  E  E  E  E  E     E  E  E  E  E  E  E  E     E  E  E  E  E  E  E  E   
E||-----5--4--0--------------|--------------------------|-----------------0--0--0--|
B||-----5--------0-----------|-----5-----4-----5-----4--|-----5-----4-----2--2--2--|
G||-----4-----------2--1-----|-----6-----4-----6-----4--|-----6-----4--------------|
D||-----------------------2--|--------------------------|--------------------------|
A||--------------------------|--0-----0-----0-----0-----|--0-----0-----0-----0-----|
E||--------------------------|--------------------------|--------------------------|


  E  E  E  E  E  E  E  E     E  E  E  E  E  E  E  E     E  E  E  E  E  E  E  E   
--------------------------|--------------------------|--------------------------|
-----3-----2-----3-----2--|-----3-----2-----3--3--3--|-----1-----0-----1-----0--|
-----4-----2-----4-----2--|-----4-----2-----4--4--4--|-----2-----0-----2-----0--|
--------------------------|--------------------------|--------------------------|
--------------------------|--------------------------|--------------------------|
--3-----3-----3-----3-----|--3-----3-----3-----3-----|--1-----1-----1-----1-----|


  E  E  E  E  E  E  E  E     Q.     Q.     Q       E  E  E  E   E  E  E  E   
--------------------------|---------------------|---------------------0-----|
-----1-----0-----1--1--1--|--0------------------|------------------0--------|
-----2-----0-----2--2--2--|--1------------------|---------------------------|
--------------------------|----------------2----|--L--2-----1h--2-----------|
--------------------------|---------2-----------|---------------------------|
--1-----1-----1-----1-----|--0------------------|--0------------------------|


  E  E  E  E  E  E  E  E     E  E  E  E  E  E  E  E     E  E  E  E  E  E  E  E   
-----0-----0-----0-----0--|-----0-----0-----0--0--0--|--------------------------|
--------4-----------------|--------------------------|-----3--2--3-----3-----3--|
--------------------2-----|-----------------2--------|--------------------0-----|
-----------2--------------|--------------2-----2-----|-----------0--------------|
--0-----------------------|-----0-----0--------------|--------------------------|
--------------------------|--------------------------|--3-----------------------|


  E  E  E  E  E  E  E  E     E  E  E  E  E  E  E  E     E  E  E  E  E  E  E  E   
--------------0-----------|--------------------------|--------------------------|
-----3--2--3-----3--1--0--|-----1--0--1-----1-----1--|-----1--0--1--3--1--0-----|
-----------------0--------|--------------------------|-----------------------2--|
--------------0-----0-----|--------------------3-----|-----------------3--------|
--------------------------|-----------3--------------|--------------3-----3-----|
-----3-----3--------------|--1-----------------------|-----1-----1--------------|


                                               NH   NH                         
  S  S  Q    Q.     E  E     E  E  E  E   E    E    Q       W                  
--------------------------|--0--------------------<>5----|--L----------------||
--------------------------|------------------<>5---------|-------------------||
--1h-2p-1--------------1--|------------------------------|-------------------||
--------------------2-----|--L--2-----1s--2--------------|-------------------||
-------------2------------|------------------------------|-------------------||
--0-----------------------|--0----------------------L----|--L----------------||




Duration Legend
---------------
W - whole
H - half
Q - quarter
E - 8th
S - 16th
. - note dotted


Tablature Legend
----------------
L - tied note
NH - natural harmonic
h - hammer on
p - pull off
S - shift slide
s - legato slide
^ - brush up
v - brush down
        
Comments

No comments yet