Gametabs
Home
Tabs
Random

Horse Race

Average rating: 4.333

6 ratings

Composer:

Tabber:

Style:

Instrument:

Created: September 30, 2007 at 12:00 AM

            Horse Race
The Legend of Zelda: Ocarina of Time
Composed by Koji Kondo

8/4/06

e-----------------------------------
B--1-1-1-3-1-----------1-1-1-3-1----
G------------2-------------------2-0
D--------------3-0-3----------------
A-----------------------------------
E-----------------------------------

e-----------------------------------
B--1-1-1-3-1------------------------
G------------2---------2-2-0-2-0----
D--------------3-0-3-------------0-3
A-----------------------------------
E-----------------------------------

e--------------1---1---1------------------
B------(1)-(3)-----------3-----1---1------
G--(2)-------------------------------2-0--
D-----------------------------------------
A-----------------------------------------
E-----------------------------------------

e------------------1-3-1-3-1-3-1-3-5-3-1----------------
B--1-3-1-3-1-3-1-3-----------------------3-1------------
G--------------------------------------------2-1-0------
D--------------------------------------------------3-2-3
A-------------------------------------------------------
E-------------------------------------------------------

e---------------------------------1
B--1-1-1-3-1-----------------1--1--
G------------2---------2--2--------
D--------------3-0-3---------------
A----------------------------------
E----------------------------------

        
Comments

@Dominik (May 25, 2007 at 10:35 PM)

this is awesome, thx


@Nick (June 13, 2007 at 9:28 PM)

This song is awesome to play and it has a good rhythm to it too. Good job.


@warhoofd (October 06, 2007 at 7:20 AM)

when i listen to the song (MIDI) than the song is longer than the tabs so i think thats this tab is not correct!


@MKbeat (October 13, 2007 at 2:13 PM)

What does the (1)(3)(2) () () mean :P ?


@Tom Meinderts (November 25, 2007 at 2:54 PM)

could you do the intro too :D


@zintaro (January 05, 2008 at 9:13 PM)

what does the () mean? that messes me up. anyone help? also 5/5 ill plan to make a video using this tab


@Sasason (January 09, 2008 at 9:48 AM)

Good tab sounds excellent!


@Gwarfan (January 22, 2008 at 3:35 AM)

brings back many memories of getting epona lol ;p


@jatt (August 14, 2008 at 8:22 PM)

hod old times lol i love these ocarina of time tabs\

5/5 btw


@Link Strife07 (December 07, 2010 at 10:28 PM)

I felt like I was actually racing Epona there for a second! Hahah, anyways, great tab man!