Gametabs
Home
Tabs
Random

Sonata of Awakening

Average rating: 4.833

6 ratings

Composer:

Tabber:

Style:

Instrument:

Created: November 05, 2010 at 12:00 AM

                                Sonata of Awakening                     


                                                  Koji Kondo
Guitar



     E  E  E  E  E  E  E  E     E  E  E  E  E  E  E  E   
E||--------------------------|--------------------------|
B||-----3--0--3--0-----------|--------------------------|
G||--------------------------|--------------------------|
D||--------0-----------0-----|--7-----------0-----------|
A||-----2-----2-----2-----2--|-----5--8--5-----5--8--5--|
E||--3-----------3-----------|--6-----------6-----------|


  E  E  E  E  E  E  E  E     E  E  E  E  E  E  E  E   
--------------------------|--------------------------|
-----3--0--3--0-----------|--------------------------|
--------------------------|--------------------------|
--------0-----------0-----|--7-----------0-----------|
-----2-----2-----2-----2--|-----5--8--5-----5--8--5--|
--3-----------3-----------|--6-----------6-----------|


  E  E  E  E  E  E  E  E     E  E  E  E  E  E  E  E   
--------------------------|--------------------------|
-----3--0--3--0-----------|--------------------------|
--------------------------|--------------------------|
--------0-----------0-----|--7-----------0-----------|
-----2-----2-----2-----2--|-----5--8--5-----5--8--5--|
--3-----------3-----------|--6-----------6-----------|


  E  E  E  E  E  E  E  E     Q    E  E  E  E  E  E   
--------------------------|-------------------------|
--------------------------|-------------3-----------|
--2-----------0-----------|-------2-----------2-----|
-----2--5--2--------2-----|--4-------4-----------4--|
--3--------------3-----3--|--5-------------5--------|
--------------------------|-------------------------|


  ^                  
  W                  
-------------------||
--3----------------||
--2----------------||
--4----------------||
--5----------------||
-------------------||

        
Comments

No comments yet