Gametabs
Home
Tabs
Random

Sword Search

Average rating: 5.000

5 ratings

Composer:

Tabber:

Style:

Instrument:

Created: August 09, 2013 at 12:00 AM

            Game: The Legend of Zelda - Link's Awakening
Song: Sword Search
Composers: Kazumi Totaka, Minako Hamano, and Kozue Ishikawa
Tabber: OggirtMoonfrad

Tuning - D G D G B E
Capo - Fret 2


     S S S S E.  S S S S S S S S S    S S E  E  E  S S S S S S S S  
E||------------------------------0-|------0-----5------------------|
B||----------7---0---------0-2-3---|---------------5-2-------------|
G||--------------------------------|---------2---------2-----------|
D||------0-4-----------0-4---------|---------------------4-2-------|
G||--0-4-----------0-4-------------|----6--------------------6-2---|
D||--------------------------------|--4--------------------------4-|


  S S S S E.  S S S S S S S S S    S S E  E  E  S S S S S S S S    S S S S E  S S E  S S S S S S  
--------------------------------|------------2------------------|-------------3-5-7----------5-3-|
----------3-----------------0-2-|------2------------------------|----------7---------------0-----|
--------------0---------0-2-----|---------------6---------------|------------------------0-------|
--------0-------------0---------|---------4-------7-4-----------|------0-4-------------0---------|
------4-------------4-----------|----2----------------7-6-------|--0-4---------------0-----------|
--2-5-----------2-5-------------|--0----------------------7-4-0-|--------------------------------|


                                                                          NH                       
  S S S S E  S S S S S S Q       S S S S S S S  E  S S S S S S S    E.    S S S S S E.  S S S S S  
--5-----3-2--0----------------|------------6-8-10------------8-6-|--8-------------------8---------|
---------------3---------3----|----------6-----------------6-----|------------------7-------------|
------------------------------|--------------------------3-------|------<>5-------0---------------|
------0----------------0------|------------------------3---------|------------------------------4-|
---------------------2--------|----3-5-7-----------3-------------|------------3-5-----------2-5---|
----0------------0-4----------|--3-------------------3-----------|----------2-------------1-------|


  S S S S Q    S S S S S S S S    S S S S E  S Q    S S S S S    S S S S E.  S S S S S S S S S  
-----------------------------7-|--5---------------------------|--------------------------------|
----------7----0---------7-----|------------------------------|------0-3-3---------------------|
---------------------------4---|------------------------------|----0---------0---------0-2-4-6-|
------0-4------------0-4-------|----------4--5-7----4-2---4-7-|--2-------------------0---------|
--0-4------------0-4-----------|----6-7-9---------------6-----|--------------------4-----------|
-------------------------------|------------------------------|----------------2-5-------------|


  S S S S E  S Q    S S S S S    Q    S S S S S S S S S S  S  S  
-------------0-2----------3-5-|--7--------------------7-9-10-12-|
----------3---------0-3-7-----|---------------------7-----------|
------------------------------|---------------0-4-7-------------|
------0-2---------------------|-----------0-4-------------------|
--4-6-------------------------|-------0-4-----------------------|
------------------------------|---------------------------------|


          PH                                                         
   E.     S S S S S S S S S S S S S    E.  S S S S E  S S S S S S S  
----------------------2---5---------|------6--------------------8-6-|
--10---<>10-------------3-----------|-------------------------6-----|
----------------------------2-------|--3-------3-5-7--------3-------|
--------------------0-------------0-|--------3------------3---------|
----------------4-6-------------2---|-----------------3-------------|
------------4-7---------------4-----|-------------------3-----------|


        NH                          
  E.    S S S S S E.  S S  S S  S   
--8-------------------8-----------||
------------------7---------------||
------<>5-------0-----------------||
-----------------------------7-10-||
------------3-5---------8-11------||
----------2-----------------------||




Duration Legend
---------------
W - whole
H - half
Q - quarter
E - 8th
S - 16th
T - 32nd
X - 64th
. - note dotted
|-n-|  - n-tuplets


Tablature Legend
----------------
L - tied note
x - dead note
g - grace note
(n) - ghost note
> - accentuded note
NH - natural harmonic
AH - artificial harmonic
TH - tapped harmonic
SH - semi harmonic
PH - pitch harmonic
h - hammer on
p - pull off
b - bend
br - bendRelease
pb - preBend
pbr - preBendRelease
brb - bendReleaseBend
\n/ - tremolo bar dip
\n - tremolo bar dive
-/n - tremolo bar Release up
/n\ - tremolo bar inverted dip
/n - tremolo bar return
-\n - tremolo bar Release down
S - shift slide
s - legato slide
/ -  slide into from below or out of upwards
\ -  slide into from above or out of downwards
~ - vibrato
W - wide vibrato
tr - trill
TP - tremolo picking
T - tapping
S - slap
P - pop
< - fade in
^ - brush up
v - brush down

        
Comments

@OggirtMoonfrad (August 10, 2013 at 12:30 AM)

In order to pull off the pinch harmonic in bar 14, fret the 10 as indicated and rest your right hand thumb on the first harmonic node (exactly halfway between the fretted 10 and the bridge) and pluck, resulting in a harmonic an octave above the fretted note.