Gametabs
Home
Tabs
Random

Southern Shrine

Average rating: 5.000

1 ratings

Composer:

Tabber:

Style:

Instrument:

Created: March 20, 2010 at 12:00 AM

                      TLoZ: Link's Awakening - Southern Shrine GUITAR TAB
     Composed by Kazumi Totaka, Minako Hamano, and Kozue Ishikawa

                  Tabbed by Auriplane ([email protected])





                         FIRST GUITAR - MELODY
                 (Rest for two measures at the start)


e |----------------|----------------|----------------|----------------|
B |131516----------|131516----------|15------12------|13--------------|
G |----------------|----------------|----------------|----------------|
D |----------------|----------------|----------------|----------------|
A |----------------|----------------|----------------|----------------|
E |----------------|----------------|----------------|----------------|

e |----------------|----13----------|----13------16--|15--------------|
B |131516----------|1516------------|--15------------|----------------|
G |----------------|----------------|15--------------|----------------|
D |----------------|----------------|----------------|----------------|
A |----------------|----------------|----------------|----------------|
E |----------------|----------------|----------------|----------------|

e |13--------------|14--------------|15--------------|----------------|
B |----------------|----------------|----------------|----------------|
G |----------------|----------------|----------------|----------------|
D |----------------|----------------|----------------|----------------|
A |----------------|----------------|----------------|----------------|
E |----------------|----------------|----------------|----------------|




                        SECOND GUITAR - HARMONY

e |----------------|----------------|
B |----0---4---0---|----0---4---0---|
G |--5---5---5---5-|--5---5---5---5-|
D |5---------------|5---------------|
A |----------------|----------------|
E |----------------|----------------|

e |----------------|----------------|----------------|--------3-------|
B |----0---4---0---|----0---4---0---|--------6-------|--4-3-4---4-3-4-|
G |--5---5---5---5-|--5---5---5---5-|--7-5-7---7-5-7-|0---------------|
D |5---------------|6---------------|6---------------|----------------|
A |----------------|----------------|----------------|----------------|
E |----------------|----------------|----------------|----------------|

e |--------4-------|----------------|----------------|--------3-------|
B |--4-3-4---4-3-4-|--3---3-6-3---3-|--3---3-6-3---3-|--4-3-4---4-3-4-|
G |5---------------|----5-------5---|3---5-------5---|3---------------|
D |----------------|6---------------|----------------|----------------|
A |----------------|----------------|----------------|----------------|
E |----------------|----------------|----------------|----------------|

e |--------4-------|--------2-------|--------3-------|--------7-101316|
B |--4-3-4---4-3-4-|--3-1-3---3-1-3-|--3---3---3---3-|----6-9---------|
G |----------------|2---------------|----5-------5---|4-7-------------|
D |6---------------|----------------|5---------------|----------------|
A |----------------|----------------|----------------|----------------|
E |----------------|----------------|----------------|----------------|


        
Comments

@musenji (March 21, 2010 at 7:35 AM)

Nice.