Gametabs
Home
Tabs
Random

Town Theme

Average rating: 5.000

2 ratings

Composer:

Tabber:

Style:

Instrument:

Created: September 30, 2007 at 12:00 AM

            Melody
     H         E  Q.         E  E   E  H        E
E||-----------10--8------|-------------------------|
B||----------------------|------8--10--8-----------|
G||--9-------------------|--10---------------------|
D||----------------------|-------------------------|
A||----------------------|-------------------------|
E||----------------------|-------------------------|

    Q     E   E   E   Q     E     E   Q     Q     Q.
|--------13--12----------------|-------------------------|
|----------------15--13--------|-----------12----13------|
|*-------------------------12--|--L--14------------------|
|*-----------------------------|-------------------------|
|------------------------------|-------------------------|
|------------------------------|-------------------------|

   H        E   E   E   E     Q.     H        E     Q     Q     E   Q.
--12-----------13--12------|---------------------|-----------------12------|
---------------------------|---------------------|-------13----15----------|
-----------------------14--|--L------------------|-------------------------|
---------------------------|---------------------|-------------------------|
---------------------------|---------------------|-------------------------|
---------------------------|---------------------|-------------------------|

   Q     Q     Q     Q        Q.      Q     E   E   E
--15----13----12----------|--12------------13--12------|
--------------------15----|----------14------------15--|
--------------------------|----------------------------|
--------------------------|----------------------------|
--------------------------|----------------------------|
--------------------------|----------------------------|

  E   E   E   Q     E   Q       Q     E   E   E   Q     E
-----13--17--19----17--15----|-------13--12----------------|
--L--------------------------|---------------15--13--------|
-----------------------------|-------------------------12--|
-----------------------------|-----------------------------|
-----------------------------|-----------------------------|
-----------------------------|-----------------------------|

  E   Q     Q     Q.         H        E   E   E   E     Q.     H        E
-------------------------|--12-----------13--12------|---------------------|
-----------12----13------|---------------------------|---------------------|
--L--14------------------|-----------------------14--|--L------------------|
-------------------------|---------------------------|---------------------|
-------------------------|---------------------------|---------------------|
-------------------------|---------------------------|---------------------|

  Q     Q     E   Q.         Q     Q     Q     Q        Q     E   H        E
-------------------------|--------15----------13----|--12---------------------|
-------13--------13------|--12----------15----------|------------13--------L--|
-------------13----------|--------------------------|--------12---------------|
-------------------------|--------------------------|-------------------------|
-------------------------|--------------------------|-------------------------|
-------------------------|--------------------------|-------------------------|

  W                   E   E   E   Q     E   E   E
-------------------|-------------17------------17--|
-------------------|-------------------------------|
-------------------|-------------------------------|
-------------------|---------15------------15------|
-------------------|-----17------------17----------|
-------------------|-------------------------------|

  E   E   E   Q     E   E   E     E   E   E   Q    Q     E
--L----------19------------19--|--L----------15---------15--|
-------------------------------|----------------------------|
-------------------------------|----------------------------|
---------15------------15------|---------14-----------------|
-----17------------17----------|-----14---------------------|
-------------------------------|----------------------------|

  E   E   E   E   E   E   E   E     E   E   E   Q     E   E   E
--L--15--14--13--12--------------|-------------17------------17--|
---------------------16--15--13--|-------------------------------|
---------------------------------|-------------------------------|
---------------------------------|---------15------------15------|
---------------------------------|-----17------------17----------|
---------------------------------|-------------------------------|

  E   E   E   Q     E   E   E     E   E   E   Q    Q     E
--L----------19------------19--|--L----------15---------15--|
-------------------------------|----------------------------|
-------------------------------|----------------------------|
---------15------------15------|---------14-----------------|
-----17------------17----------|-----14---------------------|
-------------------------------|----------------------------|

  E   E   E   E   E   E   E   E      E   E   E   H        E
--L--15--14--13--12--------------|--13--12------13-----------|
---------------------16--15--13--|----------15---------------|
---------------------------------|---------------------------|
---------------------------------|---------------------------|
---------------------------------|---------------------------|
---------------------------------|---------------------------|

   E   E   E   H        E      E   E   E   H        E
---------------------------|--17--15--13--17-----------|
---------------------------|---------------------------|
--12----------12-----------|---------------------------|
------15--14---------------|---------------------------|
---------------------------|---------------------------|
---------------------------|---------------------------|

   E   E   E   H        E      E   Q     E   Q     E   E
---------------------------|------------11--10--------10--|
--------------13-----------|--11--13--------------13------|
--13--12-------------------|------------------------------|
----------15---------------|------------------------------|
---------------------------|------------------------------|
---------------------------|------------------------------|

   E   Q     E   Q     E   E      E   Q     E   Q     E   E
------------10----------------|------------11--10--------10--|
------11--------13----11--13--|--11--13--------------13------|
--13--------------------------|------------------------------|
------------------------------|------------------------------|
------------------------------|------------------------------|
------------------------------|------------------------------|

   E   Q     E   Q     E   E      Q     E   Q     Q.
------------10----------------|--------------------------|
------11--------13----11--13--|--11--------11------------|
--13--------------------------|--------13--------13------|
------------------------------|--------------------------|
------------------------------|--------------------------|
------------------------------|--------------------------|

   E.   E.   E  T  Q.     S.
------------------15------L----||
-------12---15--L--------------||
--12-------------------------*-||
-----------------------------*-||
-------------------------------||
-------------------------------||





Harmony
     H        E  Q.        E  E  E  H        E       Q    E  E  E  Q    E
E||-----------3--3------|-----------1-----------||--------5--3-------------|
B||--1------------------|--3--3--3--------------||--------------6--5----5--|
G||---------------------|-----------------------||*------------------------|
D||---------------------|-----------------------||*------------------------|
A||---------------------|-----------------------||-------------------------|
E||---------------------|-----------------------||-------------------------|

  E  Q    Q    Q.        H        E  E  E  E     Q.     H        E
----------------------|--------------5--5-----|---------------------|
--L--5----5----5------|--6-----------------6--|--L------------------|
----------------------|-----------------------|---------------------|
----------------------|-----------------------|---------------------|
----------------------|-----------------------|---------------------|
----------------------|-----------------------|---------------------|

  Q    Q    E  Q.        Q    Q    Q    Q       Q.     Q     E   E   E
-------5----5--5------|--7----7----7----7----|--------------------------|
----------------------|----------------------|--8-----------10--10--10--|
----------------------|----------------------|--------------------------|
----------------------|----------------------|--------------------------|
----------------------|----------------------|--------------------------|
----------------------|----------------------|--------------------------|

  E   E   E   Q     E   Q       Q     E   E   E  Q    E
-----10--13--15----13--10----|---------------------------|
--L--------------------------|-------10------------------|
-----------------------------|-----------12--10--9----9--|
-----------------------------|---------------------------|
-----------------------------|---------------------------|
-----------------------------|---------------------------|

  E  Q    Q    Q.         H        E   E   E   E     Q.     H        E
----------------------|---------------------------|---------------------|
----------------------|---------------10--10------|---------------------|
--L--9----9----9------|--10-------------------10--|--L------------------|
----------------------|---------------------------|---------------------|
----------------------|---------------------------|---------------------|
----------------------|---------------------------|---------------------|

  Q    Q     E  Q.        Q    Q    Q     Q       Q    E  H        E
-----------------------|------------7----10----|----------------------|
-------9--------9------|--8--------------------|--8-------8--------L--|
------------10---------|-------7---------------|-------9--------------|
-----------------------|-----------------------|----------------------|
-----------------------|-----------------------|----------------------|
-----------------------|-----------------------|----------------------|

  W                   Q    Q    E  Q.        Q.     E   E  Q     E
-------------------|-------8----7--8------|--7-------------7--------|
-------------------|----------------------|------------10-------10--|
-------------------|----------------------|-------------------------|
-------------------|----------------------|-------------------------|
-------------------|----------------------|-------------------------|
-------------------|----------------------|-------------------------|

  H        E  E  E  E      H        H           Q    Q    E  Q.
-----------------------|---------------------|-------8----7--8------|
--8-----------------8--|--10-----------------|----------------------|
--------------9--9-----|---------------------|----------------------|
-----------------------|---------------------|----------------------|
-----------------------|---------------------|----------------------|
-----------------------|---------------------|----------------------|

  Q.     E   E  Q     E     H        E  E  E  E      H        H
--7-------------7--------|-----------------------|---------------------|
------------10-------10--|--8-----------------8--|--10-----------------|
-------------------------|--------------9--9-----|---------------------|
-------------------------|-----------------------|---------------------|
-------------------------|-----------------------|---------------------|
-------------------------|-----------------------|---------------------|

  E  E  E  H        E     E  E  E  H        E     E  E  E  H        E
--------5--------------|--0--------------------|--------5--------------|
-----6-----------------|-----0-----5-----------|-----6-----------------|
--7--------7-----------|--------0--------------|--7--------7-----------|
-----------------------|-----------------------|-----------------------|
-----------------------|-----------------------|-----------------------|
-----------------------|-----------------------|-----------------------|

  E  E  E  H        E     E  E  E  E  E  E  E  E     E  E  E  E  E  E  E  E
-----------------------|--------------------------|--------------------------|
--6--------------------|--------6--------6--------|--------------------------|
-----5-----------------|-----7--------7--------7--|-----5--7-----5--7-----5--|
--------6--------------|--8--------8--------8-----|--6--------6--------6-----|
-----------------------|--------------------------|--------------------------|
-----------------------|--------------------------|--------------------------|

  E  E  E  E  E  E  E  E     E  E  E  E  E  E  E  E     Q    E  Q    Q.
--------------------------|--------------------------|----------------------|
--------6--------6--------|--------------------------|----------------------|
-----7--------7--------7--|-----5--7-----5--7-----5--|--7----7--7----7------|
--8--------8--------8-----|--6--------6--------6-----|----------------------|
--------------------------|--------------------------|----------------------|
--------------------------|--------------------------|----------------------|

  E.  E.  E  T  Q.     S.
----------7--L-10------L----||
------8---------------------||
--7-----------------------*-||
--------------------------*-||
----------------------------||
----------------------------||

        
Comments

No comments yet