Gametabs
Home
Tabs
Random

Thieves' Hideout (Milk Bar)

Average rating: 5.000

2 ratings

Composer:

Tabber:

Style:

Instrument:

Created: August 13, 2014 at 12:00 AM

            Thieves' Hideout (Milk Bar)
Legend of Zelda: A Link Between Worlds
Composed by Ryo Nagamatsu
Tabbed by hslesperance
8/13/14

Standard Tuning


Guitar 1

  W
|---------------------------------|
|---------------------------------|
|---------------------------------|
|---------------------------------|
|---------------------------------|
|---------------------------------|


   Q.            e    e    e    e    e      Q         H                   E    T  T  S
|----------------------------------------|---------------------------------------------|
|-----------------------------------15---|-14---------------------------------------12-|
|-12------------14---15---12---15--------|-----------14-----------------------14-15----|
|----------------------------------------|---------------------------------------------|
|----------------------------------------|---------------------------------------------|
|----------------------------------------|---------------------------------------------|


   Q.              e    e    e    e    e      Q        Q        Q.           E
|------------------------------------------|----------------------------------------|
|-13-----------------------------13--------|----------------------------------------|
|-----------------15---14---15--------14---|-15-------12-------11-------------------|
|------------------------------------------|----------------------------------------|
|------------------------------------------|----------------------------------------|
|------------------------------------------|----------------------------------------|


   Q.            e    e    e    e    e      Q        H               Q
|-----------------------------------13---|-12--------------------------------|
|-------------------------13---15--------|----------13-----------------------|
|-12------------14---15------------------|-----------------------------------|
|----------------------------------------|-----------------------------------|
|----------------------------------------|-----------------------------------|
|----------------------------------------|-----------------------------------|


                                |----3----|
   Q.            e    e    e    e    e    e      H.                       Q
|---------------------------------------------|-------------------------------------|
|-15------------16---15---14---13-------------|-------------------------------------|
|-----------------------------------15---14---|-12----------------------------------|
|---------------------------------------------|-------------------------------------|
|---------------------------------------------|-------------------------------------|
|---------------------------------------------|-------------------------------------|


  W
|---------------------------------|
|---------------------------------|
|---------------------------------|
|---------------------------------|
|---------------------------------|
|---------------------------------|


  |-3-|   |-3-|   |-3-|   |-3-|   |---3----|        |-3-|   |-3-|   |-3-|   |-3-|    |----3----|
  e   E   e   E   e   E   e   E   Q       +Q        e   E   e   E   e   E   e   E    Q        +Q
|-------------------------------------------------|---------------------------------10-------(10)-----|
|-8-------7-------9-------8-----------------------|-8-------7-------9-------8-------------------------|
|---------------------------------7-------(7)-----|---------------------------------------------------|
|-------------------------------------------------|---------------------------------------------------|
|-------------------------------------------------|---------------------------------------------------|
|-------------------------------------------------|---------------------------------------------------|


  |-3-|   |-3-|   |-3-|   |-3-|   |---3----|        |-3-|   |-3-|   |-3-|   |-3-|    |----3----|
  e   E   e   E   e   E   e   E   Q       +Q        e   E   e   E   e   E   e   E    Q        +Q
|-------------------------------------------------|---------------------------------10-------(10)--------|
|-8-------7-------9-------8-----------------------|-8-------7-------9-------8----------------------------|
|---------------------------------7-------(7)-----|------------------------------------------------------|
|-------------------------------------------------|------------------------------------------------------|
|-------------------------------------------------|------------------------------------------------------|
|-------------------------------------------------|------------------------------------------------------|


   Q.            e    e    e    e    e      Q        H.
|-15------------14---17---15---14---15---|-14---------------------------------|
|----------------------------------------|----------15------------------------|
|----------------------------------------|------------------------------------|
|----------------------------------------|------------------------------------|
|----------------------------------------|------------------------------------|
|----------------------------------------|------------------------------------|


   +Q        E    e    e    e    e    e      Q        H                +E    E
|-----------------------------------------|-----------------------------------------|
|-(15)-----------14---16---15---14---15---|-14--------------------------------------|
|-----------------------------------------|----------14---------------(14)----------|
|-----------------------------------------|-----------------------------------------|
|-----------------------------------------|-----------------------------------------|
|-----------------------------------------|-----------------------------------------|


   Q.            e    e    e    e    e      Q.            e    e    e    e    e
|----------------------------------------|------------------------------14---15---|
|---------------13--------13---14---16---|-15------------17---15---17-------------|
|-15-----------------15------------------|----------------------------------------|
|----------------------------------------|----------------------------------------|
|----------------------------------------|----------------------------------------|
|----------------------------------------|----------------------------------------|


   Q.            e    e    e    e    e       Q.            S  S  Q.           E
|-17----------------------15---17---------|-15------------17-15-14-------------------|
|---------------16---18-------------17----|------------------------------------------|
|-----------------------------------------|------------------------------------------|
|-----------------------------------------|------------------------------------------|
|-----------------------------------------|------------------------------------------|
|-----------------------------------------|------------------------------------------|


   Q.            e    e    e    e    e      e  e  e  e  e  e  e  e   Q  E. S  q  Q
|----------------------------------------|-------------------------|-------9s15------*|
|-----------------------------------15---|-14-------14-13-------13-|-----------------*|
|-12------------14---15---12---15--------|----15-12-------14-11----|-----------------*|
|----------------------------------------|-------------------------|-----------------*|
|----------------------------------------|-------------------------|-----------------*|
|----------------------------------------|-------------------------|-----------------*|




Guitar 2

  S S S S S S S S S S S S S S S S
|-------6-------6-------6-------6-|
|-----8-------8-------8-------8---|
|---7-------7-------7-------7-----|
|-5-------5-------5-------5-------|
|---------------------------------|
|---------------------------------|


  S S S S S S S S S S S S S S S S    S S  S S  S S  S S  S S  S S  S S  S S
|-------6-------6-------6-------6-|---------9---------9---------9---------9-|
|-----8-------8-------8-------8---|------10--------10--------10--------10---|
|---7-------7-------7-------7-----|----9---------9---------9---------9------|
|-5-------5-------5-------5-------|-----------------------------------------|
|---------------------------------|-10--------10--------10--------10--------|
|---------------------------------|-----------------------------------------|


   S S  S S  S S  S S  S S  S S  S S  S S   S S S S S S S S S S S S S S S S
|---------8---------8---------8---------8-|-------6-------6-------------5-8-|
|------10--------10--------10--------10---|-----8-------8---------7---7-----|
|----8---------8---------8---------8------|---7-------7---------7---7-------|
|-----------------------------------------|-5-------5---------7-------------|
|-10--------10--------10--------10--------|-----------------5---------------|
|-----------------------------------------|---------------------------------|


  S S S S S S S S S S S S S S S S   S S S S S S S S S S S S S S S S
|-------6-------6-------6-------6-|-------8-------8-------8-------8-|
|-----8-------8-------8-------8---|-----8-------8-------8-------8---|
|---7-------7-------7-------7-----|---5-------5-------5-------5-----|
|-5-------5-------5-------5-------|-5-------5-------5-------5-------|
|---------------------------------|---------------------------------|
|---------------------------------|---------------------------------|


  S S S S S S S S S S S S S S S S   S S S S S S S S S S S S S S S S
|-------5-------5-------5-------5-|-------6-------6-------6-------6-|
|-----7-------7-------7-------7---|-----8-------8-------8-------8---|
|---------------------------------|---7-------7-------8-------8-----|
|---7-------7-------7-------7-----|-5-------5-------5-------5-------|
|-5-------5-------5-------5-------|---------------------------------|
|---------------------------------|---------------------------------|


  S S S S S S S S S S S S S S S S
|-------6-------6-------6---------|
|---5-8-----5-8-------8-----------|
|-------------------8-------------|
|-5-------5-------5-------5-------|
|---------------------------5-----|
|-----------------------------6-5-|


  S S S S S S S S S S S S S S S S   S S S S S S S S S S S S S S S S
|---------------------------------|---------------------------------|
|---------------------------------|---------------------------------|
|-------3-------3-------3-------3-|-------3-------3-------3-------3-|
|-----5-------5-------5-------5---|---2-5-----2-5-------5-------5---|
|---5-------5-------6-------6-----|-------------------6-------6-----|
|-3-------3-------3-------3-------|-3-------3-------3-------3-------|


  S S S S S S S S S S S S S S S S   S S S S S S S S S S S S S S S S
|---------------------------------|---------------------------------|
|---------------------------------|---------------------------------|
|-------3-------3-------3-------3-|-------3-------3-------3-------3-|
|-----5-------5-------5-------5---|---2-5-----2-5-------5-------5---|
|---5-------5-------6-------6-----|-------------------6-------6-----|
|-3-------3-------3-------3-------|-3-------3-------3-------3-------|


  S S S S S S S S S S S S S S S S   S S S S S S S S S S S S S S S S
|-------6-------6-------6-------6-|-------5-------6-------7-------6-|
|---------------------------------|---------------------------------|
|-----8-------8-------8-------8---|-----7-------7-------7-------7---|
|---8-------8-------8-------8-----|---7-------8-------9-------8-----|
|-6-------6-------6-------6-------|-5-------5-------5-------5-------|
|---------------------------------|---------------------------------|


  S S S S S S S S S S S S S S S S   S S S S S S S S S S S S S S S S
|---------------------------------|-----------------------------5-9-|
|-------9-------9-------9-------9-|---------------------------------|
|---------------------------------|-------6-------6-------6---------|
|-----8-------8-------8-------8---|-----7-------7-------7-----------|
|---8-------8-------8-------8-----|---7-------7-------7-------7-----|
|-6-------6-------6-------6-------|-5-------5-------5-------5-------|


  S S S S S S S S S S S S S S S S   S S S S S S S S S S S S S S S S
|-------9-------9-------9-------9-|-------8-------8-------8-------8-|
|-----8-------8-------8-------8---|-----7-------7-------7-------7---|
|---------------------------------|---------------------------------|
|---8-------8-------8-------8-----|---7-------8-------9-------8-----|
|-6-------6-------6-------6-------|-5-------5-------5-------5-------|
|---------------------------------|---------------------------------|


  S S S S S S S S S S S S S S S  S   S S S S S S S S S S S S S S S S
|-------9-------9-------9-----8-15-|-------8-------8-------8-------8-|
|-----8-------8-------8------------|-----8-------8-------7-------7---|
|---------------------------9------|---------------------------------|
|---8-------8-------8-----7--------|---7-------7-------7-------7-----|
|-6-------6-------6----------------|-5-------5-------5-------5-------|
|----------------------------------|---------------------------------|


  S S S S S S S S S S S S S S S S    q     Q     q     Q      H        q  Q
|-------6-------6-------6-------6-|-------------------------|---------^3------*|
|-----8-------8-------8-------8---|-^8----------^7----------|---------^3------*|
|---7-------7-------7-------7-----|-------------------------|---------^3------*|
|-5-------4-----------------------|-^8----------^7----------|---------^5------*|
|-----------------8-------7-------|-^6----------^5----------|---------^5------*|
|---------------------------------|-------------------------|---------^3------*|

s - slide
^ - downward arpeggio

W - whole
H - half
Q - quarter
E - 8th
S - 16th
T - 32nd
+ - note tied to previous
. - note dotted

Uncapitalized letters represent notes that are staccato (1/2 duration)
Irregular groupings are notated above the duration line

        
Comments

@Guilan (August 28, 2014 at 12:51 PM)

Phenomenal. Great work. What would I say? Thank you for transcribing this! Now It's just a matter of time for me to put my work on Youtube and give my thanks to you =D