Gametabs
Home
Tabs
Random

Stealth Maze

Average rating: 5.000

1 ratings

Composer:

Tabber:

Style:

Instrument:

Created: November 23, 2014 at 12:00 AM

            Stealth Maze
Legend of Zelda: A Link Between Worlds
Composed by Ryo Nagamatsu
Tabbed by hslesperance
11/23/14

Standard Tuning


Guitar
           |-3-|
  Q  Q  Q  E E E   Q  E. S Q  Q    H    Q  E. S   Q  Q  Q  Q
|----------------|---------------|--------------|-------------|
|--------------6-|-7--6----------|-7----9--7--6-|----6--------|
|-7--8--7--7-8---|-------8-7-----|--------------|-8-----7-----|
|----------------|---------------|--------------|-------------|
|----------------|---------------|--------------|-------------|
|----------------|---------------|--------------|-------------|


            |-3--|                                 |--3--|
   H    Q   E  E E    Q   E. S  Q  Q    Q   Q  Q  +E   E E   Q   E. S Q  Q
|----------------9-|------------------|------------------8-|-9--11--9-8-----|
|-------9--11-12---|-12--11--9-11-----|-9--10--9--(9)-11---|----------------|
|-11---------------|------------------|--------------------|----------------|
|------------------|------------------|--------------------|----------------|
|------------------|------------------|--------------------|----------------|
|------------------|------------------|--------------------|----------------|


  H     Q  E. S    Q  E. S Q  Q    H     Q  E. S    H.      Q    W
|-9----11--9--8-|-----8--9-8-----|-9----11--9--8-|-------------|------|
|---------------|-11-------------|---------------|-11----------|------|
|---------------|----------------|---------------|-------------|------|
|---------------|----------------|---------------|-------------|------|
|---------------|----------------|---------------|-------------|------|
|---------------|----------------|---------------|-------------|------|


              |-3--|                                |-3--|
  q   q  e. S E  E E   q   e. S q  Q    q   q  e. S E E  E    q   e.  S q  Q
|--------------------|----------------|-----------9-9-8----|------------------|
|-9--10--9---------8-|-9--10--8-9-----|-9--10--9--------11-|-10--12--10-9-----|
|-----------8-8-10---|----------------|--------------------|------------------|
|--------------------|----------------|--------------------|------------------|
|--------------------|----------------|--------------------|------------------|
|--------------------|----------------|--------------------|------------------|


                  |-3--|                                      |--3--|   |-3--| |-3-|  |-3--|  |--3--|
   q   q   e.  S  E  E E    q   e. S  q  Q     q   q   e.  S  E  E  E   E  E E E E E  E E  E  E  E  E
|------------------------|------------------|-------------------------|-8----8-9-8-9-11-9-11-12-11-12-|
|------------------------|------------------|-------------11-11-10-11-|---11--------------------------|
|-10--11--10-----------9-|-10--11--9-10-----|-10--11--10--------------|-------------------------------|
|-------------10-10-12---|------------------|-------------------------|-------------------------------|
|------------------------|------------------|-------------------------|-------------------------------|
|------------------------|------------------|-------------------------|-------------------------------|


   Q   Q   Q   Q      W
|-13--14--13------|-^21----*|
|-----------------|-^18----*|
|-------------10--|-^18----*|
|-----------------|-^20----*|
|-----------------|--------*|
|-----------------|--------*|




Bass

  Q  Q  Q  Q    Q  Q  Q  Q    Q  Q  Q  Q    Q  Q  Q  Q
|-3--3--3--3--|-3--3--3--3--|-3--3--3--3--|-3--3--3--3---|
|-------------|-------------|-------------|--------------|
|-------------|-------------|-------------|--------------|
|-------------|-------------|-------------|--------------|


  Q  Q  Q  Q    Q  Q  Q  Q    Q  Q  Q  Q    Q  Q  Q  Q
|-4--4--3--3--|-------------|-1--1--1--1--|-1--1--1--1--|
|-------------|-1--1--1--1--|-------------|-------------|
|-------------|-------------|-------------|-------------|
|-------------|-------------|-------------|-------------|


  Q  Q  Q  Q    Q  Q  Q  Q    Q  Q  Q  Q    Q  Q  Q  Q    Q  Q  Q  Q
|-1--1--1--1--|-1--1--1--1--|-------------|-------------|-------------|
|-------------|-------------|-------------|-------------|-------------|
|-------------|-------------|-4--4--4--4--|-4--4--4--4--|-4--4--4--4--|
|-------------|-------------|-------------|-------------|-------------|


  Q  Q  Q  Q    Q  Q  Q  Q    Q  Q  Q  Q    Q  Q  Q  Q
|-1-----------|-1-----------|-1-----------|-------------|
|----4--2--1--|----4--2--1--|----4--2--1--|-4--3--2--1--|
|-------------|-------------|-------------|-------------|
|-------------|-------------|-------------|-------------|


  Q  Q  Q  Q    Q  Q  Q  Q    Q  Q  Q  Q    Q  Q  Q  Q
|-------------|-------------|-------------|-------------|
|-3--1--------|-3--1--------|-3--1--------|-1--0--------|
|-------4--3--|-------4--3--|-------4--3--|-------4--3--|
|-------------|-------------|-------------|-------------|


  Q  Q  Q  Q    Q  Q  Q  Q
|-------------|-3--3--3--3--*|
|-3--3--3--3--|-------------*|
|-------------|-------------*|
|-------------|-------------*|

^ - downward arpeggio

W - whole
H - half
Q - quarter
E - 8th
S - 16th
a - acciaccatura
+ - note tied to previous
. - note dotted

Uncapitalized letters represent notes that are staccato (1/2 duration)
Irregular groupings are notated above the duration line

        
Comments

No comments yet