Gametabs
Home
Tabs
Random

Lorule's Sacred Realm

Average rating: No ratings

Composer:

Tabber:

Style:

Instrument:

Created: December 06, 2014 at 12:00 AM

            Lorule's Sacred Realm
Legend of Zelda: A Link Between Worlds
Composed by Ryo Nagamatsu
Tabbed by hslesperance
12/6/14

Standard Tuning

                                |3|   |3|          |3|   |3|
Strumming pattern for chords: E SSS E SSS E SS | E SSS E SSS SSSS

   E                Am          E                Am
   Q.    E  E  E    H     Q     Q.    E  E  E    H.
|----------------|-----------|----------------|--------|
|----------------|-----------|----------------|--------|
|-13----------13-|-14--------|-13----------13-|-14-----|
|-------14-16----|-------16--|-------14-16----|--------|
|----------------|-----------|----------------|--------|
|----------------|-----------|----------------|--------|

   E                Am          F              E
   Q.    E  E  E    H     Q     Q.    E  Q     H.
|----------------|-----------|--------------|--------|
|----------------|-----------|-13-----------|--------|
|-13----------13-|-14----14--|-------16-14--|-16-----|
|-------14-16----|-----------|--------------|--------|
|----------------|-----------|--------------|--------|
|----------------|-----------|--------------|--------|

   Am               G          C                G
   Q.    E  E  E    H.         Q.    E  E  E    H.
|----------------|----------|-12----------12-|--------|
|-13----------13-|-15-------|-------13-15----|-15-----|
|-------14-16----|----------|----------------|--------|
|----------------|----------|----------------|--------|
|----------------|----------|----------------|--------|
|----------------|----------|----------------|--------|

   Am               G              D           D
   Q.    E  E  E    Q   Q.    E    H.         +H.
|----------------|--------------|----------|---------|
|-13----------13-|-15--12-------|----------|---------|
|-------14-16----|-----------12-|-14-------|-(14)----|
|----------------|--------------|----------|---------|
|----------------|--------------|----------|---------|
|----------------|--------------|----------|---------|

   Am               G          C                D
   Q.    E  E  E    H.         Q.    E  E  E    H.
|----------------|----------|-12----------12-|-14-----|
|-13----------13-|-15-------|-------13-15----|--------|
|-------14-16----|----------|----------------|--------|
|----------------|----------|----------------|--------|
|----------------|----------|----------------|--------|
|----------------|----------|----------------|--------|

   F                G             A           A
   Q.    E  E  E    Q   Q   Q     H.         +H.
|----------------|-------------|----------|---------*|
|----------------|-12------15--|-14-------|-(14)----*|
|-14-------12-14-|-----12------|----------|---------*|
|-------15-------|-------------|----------|---------*|
|----------------|-------------|----------|---------*|
|----------------|-------------|----------|---------*|

H - half
Q - quarter
E - 8th
S - 16th
+ - note tied to previous
. - note dotted

Irregular groupings are notated above the duration line

        
Comments

No comments yet