Gametabs
Home
Tabs
Random

The Wind Sings of a Journey

Average rating: No ratings

Composer:

Tabber:

Style:

Instrument:

Created: February 25, 2010 at 12:00 AM

            The Wind Sings of a Journey - Legend of Mana
Tabbed by Ranulf (with the help of Asa and Hslesperance)
Composed by Yoko Shimomura

                   ----------------
                         LEAD
                   ----------------

e|--0---7-9---10-9-7-9----------7-9-10-12-14-12---10-9-7--|
B|----------------------10--------------------------------|
G|-------------------------11-9---------------------------|
D|--------------------------------------------------------|
A|--------------------------------------------------------|
E|--------------------------------------------------------|

|--0---7-9---10-9-7-9----------7-9-10-12-14-12---10-9-7-|
|----------------------10-------------------------------|
|-------------------------11-9--------------------------|
|-------------------------------------------------------|
|-------------------------------------------------------|
|-------------------------------------------------------|

|-------------------------------------------------14-----12---|
|-----10--10-12----10-12--11-13-15---15-13-11--10-----12------|
|---------------12--------------------------------------------|
|--10---------------------------------------------------------|
|-------------------------------------------------------------|
|-------------------------------------------------------------|


                    -----------------
                      RHYTHM CHORDS
                    -----------------

    v  ^ v  v  ^ v  v ^ v  v  ^ v  v  ^ v  v ^ v
e|--0--0--------------------------------------------------------
B|--0--0--------------------------------------------------------
G|--2--2--------------------------------------------------------
D|--2--2-2--2--2-2--2-2-2--2--2-2--2--2-2--2-2-2----------------
A|--0--0-0--0--0-0--0-0-0--0--0-0--0--0-0--0-0-0----------------
E|--------------------------------------------------------------

|--------------------------------------------------------------
|--------------------------------------------------------------
|--------------------------------------------------------------
|--2--2-2--2--2-2--2-2-2--4--4-4--4--4-4--4-4-4----------------
|--0--0-0--0--0-0--0-0-0--0--0-0--0--0-0--0-0-0----------------
|--------------------------------------------------------------

|--------------------------------------------------------------
|--------------------------------------------------------------
|--------------------------------------------------------------
|--2--2-2--2--2-2--2-2-2--0--0-0--0--0-0--0-0-0----------------
|--0--0-0--0--0-0--0-0-0--0--0-0--0--0-0--0-0-0----------------
|--------------------------------------------------------------

|--------------------------------------------------------------
|--------------------------------------------------------------
|--------------------------------------------------------------
|--2--2-2--2--2-2--2-2-2--0--0-0--0--0-0--0-0-0----------------
|--0--0-0--0--0-0--0-0-0--0--0-0--0--0-0--0-0-0----------------
|--------------------------------------------------------------

|--------------------------------------------------------------
|--------------------------------------------------------------
|--------------------------------------------------------------
|--2--2-2--2--2-2--2-2-2--0--0-0--0--0-0--0-0-0----------------
|--0--0-0--0--0-0--0-0-0--0--0-0--0--0-0--0-0-0----------------
|--------------------------------------------------------------

|--------------------------------------------------------------
|--------------------------------------------------------------
|--------------------------------------------------------------
|--2--2-2--2--2-2--2-2-2--4--4-4--4--4-4--4-4-4----------------
|--0--0-0--0--0-0--0-0-0--0--0-0--0--0-0--0-0-0----------------
|--------------------------------------------------------------

|--------------------------------------------------------------
|--------------------------------------------------------------
|--------------------------------------------------------------
|--2--2-2--2--2-2--2-2-2--0--0-0--0--0-0--0-0-0----------------
|--0--0-0--0--0-0--0-0-0--0--0-0--0--0-0--0-0-0----------------
|--------------------------------------------------------------

|--------------------------------------------------------------
|--------------------------------------------------------------
|--------------------------------------------------------------
|--2--2-2--2--2-2--2-2-2--0--0-0--0--0-0--0-0-0----------------
|--0--0-0--0--0-0--0-0-0--0--0-0--0--0-0--0-0-0----------------
|--------------------------------------------------------------

|--------------------------------------------------------------
|--------------------------------------------------------------
|--------------------------------------------------------------
|--2--2-2--2--2-2--2-2-2--0--0-0--0--0-0--0-0-0----------------
|--0--0-0--0--0-0--0-0-0--0--0-0--0--0-0--0-0-0----------------
|--------------------------------------------------------------

|--------------------------------------------------------------
|--------------------------------------------------------------
|--------------------------------------------------------------
|--------------------------------------------------------------
|--3--3-3--3--3-3--3-3-3--3--3-3--3--3-3--3-3-3----------------
|--1--1-1--1--1-1--1-1-1--1--1-1--1--1-1--1-1-1----------------

|--------------------------------------------------------------
|--------------------------------------------------------------
|--------------------------------------------------------------
|--------------------------------------------------------------
|--5--5-5--5--5-5--5-5-5--5--5-5--5--5-5--5-5-5----------------
|--3--3-3--3--3-3--3-3-3--3--3-3--3--3-3--3-3-3----------------

|--------------------------------------------------------------
|--------------------------------------------------------------
|--------------------------------------------------------------
|--------------------------------------------------------------
|--6--6-6--6--6-6--6-6-6--6--6-6--6--6-6--6-6-6----------------
|--4--4-4--4--4-4--4-4-4--4--4-4--4--4-4--4-4-4----------------

|--------------------------------------------------------------
|--------------------------------------------------------------
|--------------------------------------------------------------
|--4--4-4--4--4-4--4-4-4--2--2-2--2--2-2--2-2-2----------------
|--2--2-2--2--2-2--2-2-2--2--2-2--2--2-2--2-2-2----------------
|--------------------------------------------------------------

|--------------------------------------------------------------
|--------------------------------------------------------------
|--------------------------------------------------------------
|--2--2-2--2--2-2--2-2-2--4--4-4--4--4-4--4-4-4----------------
|--0--0-0--0--0-0--0-0-0--0--0-0--0--0-0--0-0-0----------------
|--------------------------------------------------------------

|--------------------------------------------------------------
|--------------------------------------------------------------
|--------------------------------------------------------------
|--2--2-2--2--2-2--2-2-2--0--0-0--0--0-0--0-0-0----------------
|--0--0-0--0--0-0--0-0-0--0--0-0--0--0-0--0-0-0----------------
|--------------------------------------------------------------

Return to second staff

v - downstroke
^ - upstroke

The same strumming pattern applies to all staves
        
Comments

No comments yet