Gametabs
Home
Tabs
Random

Places of Soul

Average rating: 5.000

6 ratings

Composer:

Tabber:

Style:

Instrument:

Created: January 01, 2008 at 12:00 AM

                                    Legend of Mana - Places Of Soul                         


Raita 1
      Q    Q    Q    E  E     Q    Q    Q    Q       Q    Q    Q    E  E   
E||---3--------------0--1--|--3----1---------0----|-----------------------|
B||-------------1----------|----------------------|--3--------------0--1--|
G||*-------0---------------|------------2---------|------------0----------|
D||*-----------------------|--3-------------------|-------0---------------|
A||---3--------------------|----------------------|-----------------------|
E||------------------------|----------------------|--3--------------------|


  Q    Q    Q    Q       Q    Q    Q    Q       Q    Q    Q    Q     
--1----0--------------|----------------------|----------------------|
-----------------3----|--1-------------------|------------0----1----|
------------1---------|------------2---------|-------2----0---------|
-------2--------------|-------2---------2----|-------0---------0----|
-----------------2----|--0-------------------|----------------------|
--4-------------------|----------------------|--3-------------------|


  Q    Q    Q    Q       Q    Q    Q    Q       Q    Q    Q    E  E   
--0--------------1----|----------------------|--3--------------0--1--|
----------------------|--3--------------0----|------------1----------|
----------------------|------------0---------|-------0---------------|
------------3---------|-------0--------------|-----------------------|
-------3--------------|----------------------|--3--------------------|
--1-------------------|--3-------------------|-----------------------|


  Q    Q    Q    Q        Q     Q     Q    Q        Q    Q    Q    E  E   
--3----8----7----8----|--12----------------7----|--10----8---------7--5--|
----------------------|-------------------------|------------------------|
----------------------|---0---------------------|------------------5-----|
--3-------------------|-------------------------|-------------7----------|
------------8---------|--------------------7----|---0----7---------------|
-------8--------------|--------12S----4---------|------------------------|


  Q    Q    Q    Q       Q    Q    Q    Q       Q    Q    Q    Q     
--3---------1---------|------------0---------|--3---------1---------|
----------------------|----------------------|----------------------|
----------------------|----------------------|----------------------|
--0---------0---------|----------------------|--0--------------2----|
-------0---------0----|--L----0----4----0----|-------0----3---------|
----------------------|----------------------|----------------------|


  Q    Q    Q    E  E     Q    Q    E  E  E   E      Q     Q     Q     Q     
-----------------0-----|--0------------3--8--10--|--12----------------15----|
--------------------3--|------------1------------|--------------------------|
------------0----------|-------0-----------------|---------------------0----|
-------0---------------|-------------------------|--------------11----------|
-----------------------|--3----------------------|--------12----------------|
--3--------------------|-------------------------|---9----------------------|


   Q     Q     E   E   E   E      Q    Q     Q     Q     
--13--------------------------|--10---------10----13----|
----------------------10--13--|-------------------------|
------------------10----------|---0----------0----------|
---0----------12--------------|--------0----------------|
--------12--------------------|-------------------------|
------------------------------|-------------------------|


   Q    Q     Q     Q       Q     Q     Q    Q       Q    Q    Q    Q     
--12---------------------|-------10----10----8----|--8----7----7----5----|
-------------------------|------------------------|----------------------|
--------0----------------|------------------------|--5----4----4----2----|
-------------10----------|------------------------|--0-------------------|
-------------------10----|--8-----------8---------|----------------------|
---8---------------------|--------8----------8----|----------------------|


  Q    Q    Q    Q                        
--5--------------------||-------|-------||
-------8----8----6-----||-------|-------||
--2-------------------*||-------|-------||
-------5----5----3----*||-------|-------||
-----------------------||-------|-------||
-----------------------||-------|-------||




Duration Legend
---------------
W - whole
H - half
Q - quarter
E - 8th
S - 16th
T - 32nd
X - 64th
. - note dotted
|-n-|  - n-tuplets


Tablature Legend
----------------
L - tied note

        
Comments

@astral1 (June 09, 2012 at 2:45 AM)

_

...its so nice! no comments?!