Gametabs
Home
Tabs
Random

Nocturne

Average rating: 4.500

4 ratings

Composer:

Tabber:

Style:

Instrument:

Created: June 10, 2009 at 12:00 AM

            Nocturne from Legend of Mana
Composed by Yoko Shimomura


drop D, capo 1

e|------------|--------3---|--------3---|--------3---|
B|------------|3-----------|3-----------|3-----------|
G|0---0-2-3-5-|----0-------|----0-------|----0-------|
D|--0---------|--0---------|--0---------|--0---------|
A|------------|------------|------------|------------|
D|5-----------|3-----------|1-----------|3-----------| x2


e|------------|--------3---|--------3---|--------3---|
B|------------|3-----------|3-----------|3-----------|
G|0---0-2-3-5-|----0---0---|----0---0---|----0---0---|
D|--0---0-5-0-|--0---0---0-|--0---0---0-|--0---0---0-|
A|------------|------------|------------|------------|
D|5-----------|3-----------|1-----------|3-----------|


e|------------|--------3---|6-----5-3---|5-----------|
B|------------|3-----------|------------|--------6---|
G|0---0-2-3-5-|----0---0---|----0---0---|------------|
D|--0---0-5-0-|--0---0---0-|--0---0---0-|----3---3---|
A|------------|------------|------------|--3---3---3-|
D|5-----------|3-----------|1-----------|3-----------|


e|------------|----7-1015--|------------|
B|------------|8-10----12--|------------|
G|----------7-|--------12--|------------|
D|----5-7-9---|------------|------------|
A|--5---------|------------|------------|
D|5-----------|------------|------------|
        
Comments

@Xion_Blico (June 11, 2009 at 4:04 AM)

good job!

love this song, especially all L.O.M's songs