Gametabs
Home
Tabs
Random

Nocturne

Average rating: 5.000

1 ratings

Composer:

Tabber:

Style:

Instrument:

Created: February 04, 2020 at 12:00 AM

            Song: Nocturne
Composer: Yoko Shimomura
Game: Legend of Mana 
Tab: plapoa 

does the tab is disordened?, it looks right in my text editor, but in the preview it not.

E|-------------2---3---5---|-------------<12>--|-------------<12>--|-------------<12>--|
B|-5-----------------------|<12>---------------|<12>---------------|<12>---------------|
G|-------------------------|-------------------|---------4---------|---------4---------|
D|---------2---------------|---------0---------|-----2-------------|-----2-------------|
A|-----2-------------------|-----2-------------|-3-----------------|-5-----------------|
E|-0-----------------------|-0-----------------|-------------------|-------------------|


E|-------------2---3---5---|--------------12>--|-------------<12>--|-------------<12>--|
B|-5-----------------------|<12>---------------|<12>---------------|<12>---------------|
G|-------------------------|-------------------|---------4---------|---------4---------|
D|---------2---------------|---------0---------|-----2-------------|-----2-------------|
A|-----2-------------------|-----2-------------|-3-----------------|-5-----------------|
E|-0-----------------------|-0-----------------|-------------------|-------------------|


E|-------------2---3---5---|----------------<12>-----|----------------<12>-----|----------------<12>-----|
B|-5-----------------------|<12>---------------------|<12>---------------------|<12>---------------------|
G|-------------------------|-------------------------|---------4-------4-------|---------4-------4-------|
D|---------2-------2-------|---------0-------0-------|-----2-------2-------2---|-----2-------2-------2---|
A|-----2-------2-------2---|-----2-------2-------2---|-3-----------------------|-5-----------------------|
E|-0-----------------------|-0-----------------------|-------------------------|-------------------------|


E|-------------2---3---5---|----------------<12>-----|<3>--------------<12>----|-------------------------|
B|-5-----------------------|<12>---------------------|------------<19>---------|<19>---------------------|
G|-------------------------|-------------------------|---------4-------4-------|----------------<19>-----|
D|---------2-------2-------|---------0-------0-------|-----2-------2-------2---|---------0-------0-------|
A|-----2-------2-------2---|-----2-------2-------2---|-3-----------------------|-----0-------0-------0---|
E|-0-----------------------|-0-----------------------|-------------------------|-2-----------------------|


E|<12>---------------------|---------------------0---|----------<12>--|<12>----|
B|-------------------------|-----0-----------0-------|-----<12>-------|<12>----|
G|-------------0-----------|-0-----------0-----------|<12>------------|<12>----|
D|---------2-----------2---|---------2---------------|----------------|--------|
A|-----2-----------2-------|-------------------------|----------------|--------|
E|-0-----------------------|-------------------------|----------------|--------|



        
Comments

No comments yet