Gametabs
Home
Tabs
Random

Dungeon Entrance

Average rating: 5.000

2 ratings

Composer:

Tabber:

Style:

Instrument:

Created: September 23, 2011 at 12:00 AM

                      Legacy of the Wizard - Dungeon Entrance Theme GUITAR TAB
                        Composed by Yuzo Koshiro

                 Tabbed by Auriplane ([email protected])




   H.                H.                 E  E  E  Q.       Q.       Q.        
e |------------------------------------|---------------------------8--------|
B |------------------------------------|8--6--8-----------------------------|
G |------------------5-----------------|---------5--------L-----------------|
D |------------------------------------|------------------------------------|
A |3-----------------------------------|------------------------------------|
E |------------------------------------|------------------------------------|


   H.                H.                 Q.       Q.       Q.       Q.        
e |6-----------------------------------|------------------------------------|
B |------------------------------------|6--------------------------6--------|
G |------------------7-----------------|---------5--------8-----------------|
D |------------------------------------|------------------------------------|
A |------------------------------------|------------------------------------|
E |------------------------------------|------------------------------------|

   W.                                    W.                                  
e |------------------------------------|------------------------------------|
B |8------------------------- slide to |20----------------------------------|
G |------------------------------------|------------------------------------|
D |------------------------------------|------------------------------------|
A |------------------------------------|------------------------------------|
E |------------------------------------|------------------------------------|


   E  E  E  E  E  E  E  E  E  E  E  E   E  E  E  E  E  E  E  E  E  E  E  E   
e |------------------------------------|------------------------------------|
B |---------6--8--------------6--8-----|------6--------------------6-----6--|
G |5--7--8--------5--L--7--8--------5--|7--8-----7--5--------7--8-----8-----|
D |------------------------------------|---------------8--L-----------------|
A |------------------------------------|------------------------------------|
E |------------------------------------|------------------------------------|


   E  E  E  E  E  E  E  E  E  E  E  E   E  E  E  E  E  E  E  E  E  E  E  E   
e |------------------------------------|------------------------------------|
B |---------6--8--------------6--8-----|------6--------------------6--------|
G |5--7--8--------5--L--7--8--------5--|7--8-----7--5--------7--8-----8--7--|
D |------------------------------------|---------------8--L-----------------|
A |------------------------------------|------------------------------------|
E |------------------------------------|------------------------------------|


   E  E  E  E  E  E  E  E  E  E  E  E   E  E  E  E  E  E  E  E  E  E  E  E   
e |8-----------------------------------|8-----------------------------------|
B |---9-----9--------11----------------|---9-----9-----------------------11-|
G |------8-----8--------10-7--10-7-----|------8-----8--------7--10-7--10----|
D |---------------10----------------8--|---------------10-8-----------------|
A |------------------------------------|------------------------------------|
E |------------------------------------|------------------------------------|


   E  E  E  Q.       H.                 
e |8-----------------------------------|
B |---8--------------------------------|
G |------10-9--------L-----------------|
D |------------------------------------|
A |------------------------------------|
E |------------------------------------|




Duration Legend
---------------
W - whole
H - half
Q - quarter
E - 8th
S - 16th
. - note dotted


Tablature Legend
----------------
L - tied note


        
Comments

No comments yet