Gametabs
Home
Tabs
Random

Character Select Screen

Average rating: 5.000

2 ratings

Composer:

Tabber:

Style:

Instrument:

Created: September 15, 2011 at 12:00 AM

            Song Title: 	Character Select Screen
Game: 		Legacy of the Wizard
Composer: 	Yuzo Koshiro
Tabbed By: 	James Carson
Date: 		09/13/2011

(Capo 3)
     Q    Q    E  E  E  E     H        E  E  Q       Q    Q    E  E  E   E   
E||-------0----5--3--------|--0-------------------|-------0----5--9-----10--|
B||--2------------------3--|-----------3-----0----|--2----------------------|
G||--2----2----------------|--0--------0----------|--2----2-----------------|
D||------------------0--4--|--0--------0-----0----|------------------5---7--|
A||--0------------0--------|--2-----------2-------|--0---------0--7---------|
E||------------------------|-----------3----------|-------------------------|


   Q     Q     Q    Q       Q    Q    E  E  E  E     H        E  E  Q     
--12----------10----7----|-------0----5--3--------|--0-------------------|
-------------------------|--2------------------3--|-----------3-----0----|
--------------------7----|--2----2----------------|--0--------0----------|
--------10---------------|------------------0--4--|--0--------0-----0----|
---8----------10---------|--0------------0--------|--2-----------2-------|
-------------------------|------------------------|-----------3----------|


  Q    Q    E  E  E   E      Q     Q    Q    Q       Q    Q    Q    Q     
-------0----5--9-----10--|--12----------5----7----|--8-------------------|
--2----------------------|------------------------|-----------------6----|
--2----2-----------------|-------------------7----|------------5---------|
------------------5---7--|--------10----5---------|-------7--------------|
--0---------0--7---------|---8--------------------|--5-------------------|
-------------------------|------------------------|----------------------|


  E  E  E  E   H            E  E   E  Q.     E  E     E  Q.     E  E  E  E   
--7-----------10--------|--10--9--10--9------------|---------------0--5--7--|
-----------9------------|--------------------3--2--|--3--2------2-----------|
--------9---------------|--------------------------|------------2-----------|
-----9------------------|---7----------------------|------------------------|
--7---------------------|--------------------0-----|------------0-----------|
------------------------|--------------------------|------------------------|


  Q    Q    Q    Q       E  E  E  E   H            E   E  E  E   H         
--8-------------------|--7-----------10--------|--10------7--9---L--------|
-----------------6----|-----------9------------|------10------------------|
------------5---------|--------9---------------|---9----------------------|
-------7--------------|-----9------------------|---7----------------------|
--5-------------------|--7---------------------|---0----------------------|
----------------------|------------------------|--------------------------|


-------||
-------||
-------||
-------||
-------||
-------||




Duration Legend
---------------
W - whole
H - half
Q - quarter
E - 8th
S - 16th
T - 32nd
X - 64th
. - note dotted
|-n-|  - n-tuplets


Tablature Legend
----------------
L - tied note
x - dead note
g - grace note
(n) - ghost note
> - accentuded note
NH - natural harmonic
AH - artificial harmonic
TH - tapped harmonic
SH - semi harmonic
PH - pitch harmonic
h - hammer on
p - pull off
b - bend
br - bendRelease
pb - preBend
pbr - preBendRelease
brb - bendReleaseBend
\n/ - tremolo bar dip
\n - tremolo bar dive
-/n - tremolo bar Release up
/n\ - tremolo bar inverted dip
/n - tremolo bar return
-\n - tremolo bar Release down
S - shift slide
s - legato slide
/ -  slide into from below or out of upwards
\ -  slide into from above or out of downwards
~ - vibrato
W - wide vibrato
tr - trill
TP - tremolo picking
T - tapping
S - slap
P - pop
< - fade in
^ - brush up
v - brush down

        
Comments

No comments yet