Gametabs
Home
Tabs
Random

Pigeons and a Boy

Average rating: 5.000

9 ratings

Composer:

Tabber:

Style:

Instrument:

Created: November 26, 2013 at 12:00 AM

                                     Pigeons and a Boy


Laputa: Castle In The Sky
Joe Hisaishi
Guitar arrangement by Basisti94 (Miro Laaksonen)
23.11.2013

----------------------------------
Piece originally from the image album. Parts of it are used in
that trumpet song Pazu plays and in the main theme.
----------------------------------


Capo 3
Tempo ~ 100
     H        E  E     E.  S E  Q    E     E.  S E  Q.        Q    E  E.  S E   
E||-----------------|-------------------|--------0--0------|-------------------|
B||-----------------|-----------0-------|--2---3-----------|--3----3--3---2-0--|
G||-----------------|--2-----2--1-------|--2---------------|-------------------|
D||--------------2--|--2---2----2----2--|--2---------------|-------------------|
A||-----------------|--0--------2-------|--0--------0------|--2-------2--------|
E||-----------------|-----------0-------|------------------|--0-------0--------|


  Q.     Q    E     E.  S E  Q    E     E.  S E  Q.        Q    E  E.  S E   
-----------------|-------------------|--------0--0------|-------------------|
--2--------------|-----------0-------|--2---3-----------|--3----3--3---2-0--|
---------2-------|--2-----2--1-------|--2---------------|-------------------|
--2-----------2--|--2---2----2----2--|--2---------------|-------------------|
--0--------------|--0--------2-------|--0--------0------|--2-------2--------|
-----------------|-----------0-------|------------------|--0-------0--------|


  Q    E  Q    E     Q    E  E.  S E     E.  S E  Q    E     Q    E  E.  S E   
------------------|--2----2--2---0----|--0----------------|--2----2--2---0----|
-------2----------|--3-------3-----3--|-------------------|--3-------3-----3--|
--2-------2----2--|--2-------2--------|------2-2--2----2--|--2-------2--------|
--2---------------|--0-------0--------|--2----------------|--0-------0--------|
--0---------------|-------------------|--0--------0-------|-------------------|
------------------|-------------------|-------------------|-------------------|


  Q.     E  E  E     E.  S E  E  E  E     Q    E  Q.        E.  S E  E  E  E   
--0---------------|--------------------|-----------------|--------------------|
---------2--------|--2---2-2--3--2--0--|-------2---------|--0---0-0--0-----0--|
------------2-----|--1-----------1-----|--2--------------|--2-----------3-----|
--2------------2--|--3-----------3-----|----------4------|--1--------1--------|
--0---------------|--------------------|--4--------------|--2--------2--------|
------------------|--------------------|--2--------------|--------------------|


  Q.     E  E  E     E.  S E  Q    E     E.  S E  Q.        Q    E  E.  S E   
--0---------------|-------------------|--------0--0------|-------------------|
------------------|-----------0-------|--2---3-----------|--3----3--3---2-0--|
------------------|--2-----2--1-------|--2---------------|-------------------|
---------------2--|--2---2----2----2--|--2---------------|-------------------|
--2---------------|--0--------2-------|--0--------0------|--2-------2--------|
--0------0--2--3--|-----------0-------|------------------|--0-------0--------|


  Q    E  Q.        E.  S E  Q    E     E.  S S S Q    E   
-----------------|-------------------|------------0-------|
-------2---------|-----------0-------|--2---0-2-3------2--|
--2-------2------|--2-----2----------|--------------------|
--2--------------|------2---------2--|--------------------|
--0--------------|--0----------------|--0-----------------|
-----------------|-----------0-------|--------------------|


  Q    E  E  S S S S    Q    E  E  E  E     E.  S  S  S Q    E   
---------------------|-------------------|-------------------0--|
--3----3--3--5-3-2-0-|--2-------------0--|--1---0h-1p-0-1-------|
---------------------|-------2-----2-----|--2-------------------|
---------------------|----------2--------|--2-------------------|
---------------------|--0----------------|--0-------------------|
--0-------0----------|-------------------|----------------------|


  Q.     Q    E     E.  S  S  S Q    E     Q.     Q    E     E.  S E  Q    E   
-----------------|----------------------|-----------------|-------------------|
--0------L-------|-------------------1--|-----------------|-----------1-------|
--0--------------|--2---0h-2p-0-2-------|--0------L-------|-------------------|
--------------2--|----------------------|--------------2--|--3---2-3-------3--|
--2--------------|----------------------|--2--------------|--5----------------|
--0--------------|--1-------------------|--0--------------|-------------------|


  E.  S E  Q    E     Q    E  Q    E     E  E  E  E  E  E   
-------------------|------------------|--------------------|
-----------1----1--|--0------------0--|--0--------------0--|
-------------------|------------------|--------------2-----|
--2---0-2----------|-------4--4-------|-----------2--------|
--0----------------|--2---------------|-----0--2-----------|
-------------------|------------------|--0-----------------|


  E.  S  S  S Q    E     Q.     Q    E     E.  S  S  S Q    E   
-------------------0--|-----------------|----------------------|
--1---0h-1p-0-1-------|--0------L-------|-------------------1--|
--2-------------------|--0--------------|--2---0h-2p-0-2-------|
--2-------------------|--------------2--|----------------------|
--0-------------------|--2--------------|----------------------|
----------------------|--0--------------|--1-------------------|


  Q.     Q    E     Q    E  E.  S E     Q    E  Q.        E.  S E  Q    E   
-----------------|-------------------|-------0---------|-------------------|
-----------------|-------------------|--3-------1------|--1---0----0-------|
--0------L-------|-------5--5---4-5--|-----------------|--2-----2-------1--|
--------------2--|--3----------------|--2--------------|--0--------2-------|
--2--------------|--5----------------|--0--------------|-------------------|
--0--------------|-------------------|-----------------|-------------------|


  Q.     Q    S S    E.  S E  Q    E     Q.     Q    E     E.  S E  Q    E   
------------------|--0-----0--0----3--|-----------------|----------------0--|
--------------1-3-|------3------------|--3--------------|--1---0-1--1-------|
--2---------------|--0--------0-------|--0-----------0--|--2--------2-------|
--2---------------|--2--------2-------|--0------0-------|--2--------2-------|
--0------0--------|-------------------|-----------------|--0--------0-------|
------------------|-------------------|-----------------|-------------------|


  Q.     Q    E     Q.     E  E  E     Q    E  Q.      
--0-----------0--|--5---------3--1--|--3--------------|
-----------------|------------------|-------1--1------|
--0--------------|------------------|--0-------0------|
-----------------|------------------|--2-------2------|
--2------2-------|--3------3--------|--3-------3------|
--0------0-------|--1------1--------|-----------------|


  E  S  S  S S E  S  S  S S    E  E  E  E  E  E     E  E  E  E  E  S  S  
--1--0h-1p-0----------------|--0-----------------|----------------------|
-------------3-1--0h-1h-3-0-|-----------0--------|-----------0-----1h-3-|
--2------------2------------|--------1-----1-----|--------1-----1-------|
--0------------0------------|-----2-----------2--|-----2-----------2----|
----------------------------|--------------------|----------------------|
----------------------------|--0-----------------|--0-------------------|


  E.  S  E  Q    E     E  E  E  Q    E     E.  S  E  Q    E   
-----------------0--|-------------------|--------------------|
--1---0h-1--1-------|--0----------------|-----------------1--|
--2---------2-------|-------------------|--2---0h-2--2-------|
--2---------2-------|----------------2--|--------------------|
--0---------0-------|--------2----------|--3---------3-------|
--------------------|--0--3-----0-------|--1---------1-------|


  E  E  E  Q    E     Q    E  E.  S E     Q    E  E  E  E     E.  S E  Q    E   
-------------------|-------------------|-------0-----------|-------------------|
-----------1-------|-------------------|--3-------1--------|--1---0----0-------|
--0-----0----------|-------5--5---4-5--|-------------2-----|--2-----2-------1--|
-----2----------2--|--3----------------|--2-------2-----2--|--0--------2-------|
--3----------------|--5-------5--------|--0----------------|-------------------|
-------------------|-------------------|-------------------|-------------------|


  E  E  E  Q    E     E.  S E  E.  S E     E  S S S S Q    E   
-------------------|--------------------|-------------0-------|
-------------------|-----------0-----0--|--2----0-2-3------2--|
--2----------------|--2-----2------2----|-----2---------------|
-----2----------2--|------2-------------|---------------------|
--------3--0-------|--0-----------------|--0------------------|
-------------------|-----------0--------|---------------------|


  Q    E  E  S S S S    Q    E  Q    E     E.  S E  Q    E     E.  S E  Q.      
---------------------|------------------|-------------------|--------0--0------|
--3----3--3--5-3-2-0-|--2---------------|-----------0-------|--2---3-----------|
---------------------|-------2----------|--2-----2--1-------|--2---------------|
---------------------|----------2----2--|--2---2----2----2--|--2---------------|
---------------------|--0---------------|--0--------2-------|--0--------0------|
--0-------0----------|------------------|-----------0-------|------------------|


  Q    E  E.  S E     Q.     Q    E     E.  S E  Q    E     E.  S E  Q.      
-------------------|-----------------|-------------------|--------0--0------|
--3----3--3---2-0--|--2--------------|-----------0-------|--2---3-----------|
-------------------|---------2-------|--2-----2--1-------|--2---------------|
-------------------|--2-----------2--|--2---2----2----2--|--2---------------|
--2-------2--------|--0--------------|--0--------2-------|--0--------0------|
--0-------0--------|-----------------|-----------0-------|------------------|


  Q    E  E.  S E     Q    E  Q    E     Q    E  E.  S E     E.  S E  Q    E   
-------------------|------------------|--2----2--2---0----|--0----------------|
--3----3--3---2-0--|-------2----------|--3-------3-----3--|-------------------|
-------------------|--2-------2----2--|--2-------2--------|------2-2--2----2--|
-------------------|--2---------------|--0-------0--------|--2----------------|
--2-------2--------|--0---------------|-------------------|--0--------0-------|
--0-------0--------|------------------|-------------------|-------------------|


  Q    E  E.  S E     Q.     E  E  E     E.  S E  E  E  E     Q    E  Q.      
--2----2--2---0----|--0---------------|--------------------|-----------------|
--3-------3-----3--|---------2--------|--2---2-2--3--2--0--|-------2---------|
--2-------2--------|------------2-----|--1-----------1-----|--2--------------|
--0-------0--------|--2------------2--|--3-----------3-----|----------4------|
-------------------|--0---------------|--------------------|--4--------------|
-------------------|------------------|--------------------|--2--------------|


  E.  S E  E  E  E     Q.     E  E  E     E.  S E  Q    E     E.  S E  Q.      
--------------------|--0---------------|-------------------|--------0--0------|
--0---0-0--0-----0--|------------------|-----------0-------|--2---3-----------|
--2-----------3-----|------------------|--2-----2--1-------|--2---------------|
--1--------1--------|---------------2--|--2---2----2----2--|--2---------------|
--2--------2--------|--2---------------|--0--------2-------|--0--------0------|
--------------------|--0------0--2--3--|-----------0-------|------------------|


  Q    E  E.  S E     Q    E  Q    E     E.  S E  Q    E     E.  S E  Q.      
-------------------|------------------|-------------------|--------0--0------|
--3----3--3---2-0--|-------2----------|-----------0-------|--2---3-----------|
-------------------|--2-------2-------|--2-----2----------|--2---------------|
-------------------|--2------------2--|--2---2---------2--|--2---------------|
--2-------2--------|--0---------------|--0--------2-------|--0---------------|
--0-------0--------|------------------|-----------0-------|------------------|


  Q    E  E.  S E     E  E  E  Q.       
-------------------|------------------||
--3----3--3---2-0--|--------2---------||
-------------------|--2--------2------||
-------------------|-----2------------||
--2-------2--------|--------4--0------||
--0-------0--------|------------------||




Duration Legend
---------------
W - whole
H - half
Q - quarter
E - 8th
S - 16th
T - 32nd
X - 64th
. - note dotted
|-n-|  - n-tuplets


Tablature Legend
----------------
L - tied note
x - dead note
g - grace note
(n) - ghost note
> - accentuded note
NH - natural harmonic
AH - artificial harmonic
TH - tapped harmonic
SH - semi harmonic
PH - pitch harmonic
h - hammer on
p - pull off
b - bend
S - shift slide
s - legato slide
/ -  slide into from below or out of upwards
\ -  slide into from above or out of downwards
~ - vibrato
W - wide vibrato
tr - trill
TP - tremolo picking
T - tapping
S - slap
P - pop
< - fade in
^ - brush up
v - brush down

        
Comments

No comments yet