Gametabs
Home
Tabs
Random

Lost Paradise

Average rating: 5.000

7 ratings

Composer:

Tabber:

Style:

Instrument:

Created: November 19, 2013 at 12:00 AM

                                      Lost Paradise

Laputa: Castle In The Sky
Joe Hisaishi
Guitar arrangement by Basisti94 (Miro Laaksonen)
17.11.2013

--------------------------------------
This piece is from image album, but it's basically Sheeta's Decision
but in different key and with different intro.
----------------------------------


Capo 3
Tempo ~ 82
                          ^                                              
     H.           Q       H        E  E  E  E     Q.     E  E  E  E  E   
E||--------------------|--3--------2--0--------|------------0-----------|
B||---------------0----|-----------------3--2--|--3------0-----3--1--0--|
G||--------------------|--0--------------------|------------0-----------|
D||--------------------|--2--------------------|------------------------|
A||--------------------|-----------1-----------|--2---------3-----------|
E||--------------------|-----------------------|------------------------|


  Q.     E  H           Q.     E  H           W                 
---------------------|---------------------|-------------------|
--0------------------|--1------0--0--------|--L----------------|
--0------2--2--------|--2------------------|--L----------------|
---------------------|--1------------------|--L----------------|
--4------------------|---------------------|-------------------|
---------------------|---------------------|-------------------|


  E  E  E  E  E  Q.        E  E  E  E  E  E  E  E     E  E  E  E  E  E  E  E   
------------------------|--------------------------|--------------------------|
------------------------|--------------------------|--0--------------------3--|
--------0---------------|--------0--------------0--|--------0-----------2-----|
--------------4--2------|--------------4-----2-----|--------------4--2--------|
-----2-----2------------|-----2-----2-----2--------|-----2-----2--------------|
--0---------------------|--0-----------------------|--0-----------------------|


  E  E  E  E  E  E  E  E     E  E  E  E  E  Q.        E  E  E  E  E  E  E  E   
--------------------0-----|------------------------|--------------------------|
--L--------------------0--|--L---------------------|--------------------------|
--------2-----0-----------|--------0---------------|--------0--------------0--|
-----0-----0-----4--------|--------------4--2------|--------------4-----2-----|
--------------------------|-----2-----2------------|-----2-----2-----2--------|
--0-----------------------|--0---------------------|--0-----------------------|


  E  E  E  E  E  E  E  E     E  E  E  E  E  E  E  E     E  E  E  E  E  Q.      
--------------------------|-----------------------0--|------------------------|
--0--------------------3--|-----------------2--3-----|--0---------------------|
--------0-----------2-----|--------2-----0-----------|--------0---------------|
--------------4--2--------|-----0-----0-----4--------|--------------4--2------|
-----2-----2--------------|--------------------------|-----2-----2------------|
--0-----------------------|--0-----------------------|--0---------------------|


  E  E  E  E  E  E  E  E     E.  S E  E  E  Q    E     E.  S E  E  E  Q    E   
--------------------------|-------------------------|-------------------------|
--------------------------|--------0----------------|--------0----------------|
--------0--------2--0-----|-------------------------|----------------------0--|
--------------4--------4--|--4---2-------0-------2--|--4---2-------0----------|
-----2-----2--------------|--3--------------3-------|--3--------------3-------|
--0-----------------------|-----------3-------------|-----------3-------------|


  E  E  E  E  E  Q.        E  E  E  E  E  E  Q       E  E  E  E  E  Q.      
------------------------|--------------------0----|--2---------------------|
--------3---------------|--------------3----------|------------------------|
--2---------------------|--------2----------------|--------0---------------|
-----4-----4--2---------|-----4-----4-------------|--------------4--2------|
--5--------------5------|--5--------------5-------|-----2-----2------------|
------------------------|-------------------------|--0---------------------|


  E  E  E  E  E.  E.  E     E  S S E  E  E  Q.        E  E  E  E  Q    Q     
--------------5---3---2--|--2----3-0---------------|--------0----------0----|
-----------0-------------|---------------3--1------|--------------3---------|
--------0----------------|-----0------0------------|-----0-----0------------|
-------------------------|-------------------------|------------------------|
-----2-----2-------------|--3----------------------|--3---------------------|
--0----------------------|-------------------------|------------------------|


  E  E  E  E  E  Q.        E  E  E  E  E.  E.  E     S  S E  E  E  E  Q.      
--2---------------------|--------------5---3---2--|--2h-3----0---------------|
------------------------|-----------0-------------|-------0--------3--1------|
--------0---------------|--------0----------------|-------------0------------|
--------------4--2------|-------------------------|--------------------------|
-----2-----2------------|-----2-----2-------------|--3-----------------------|
--0---------------------|--0----------------------|--------------------------|


  E  E  E  E  E  E  E  E     E  Q    E  E  E  E  E     E  Q    E  E  E  E  E   
--------0--------3--2--0--|-------------------------|-------------------------|
--------------3-----------|--3----------3-----1--0--|--1----------1-----0-----|
-----0-----0--------------|----------0--------------|----------------------2--|
--------------------------|-----0-------------0-----|----------3--------------|
--3-----------------------|--2-------------2--------|-----3----------3--------|
--------------------------|-------------------------|--1----------1-----------|


  E  E  E  E  E  Q.        E  E  E  E  E  Q.        E  E  E  E  E  E  E  E   
------------------------|------------------------|--------------------------|
--0---------------------|--L---------------------|--L--------------------1--|
--------------2---------|--------------1---------|--------------1-----2-----|
--------2--------2------|--------2--------2------|--------2--------2--------|
-----2-----2------------|-----2-----2------------|-----2-----2--------------|
--0---------------------|--0---------------------|--0-----------------------|


  E  E  E  E  E  E  E  E     E  E  E  E  E  E  E  E     E  E  E  E  E  Q.      
--0--------------------3--|--L-----------------5--0--|--L---------------------|
--------1-----0-----3-----|--------0-----------------|--------1-----0---------|
-----------------2--------|--------------2--0--------|-----------------2------|
-----2-----2--------------|-----0-----0--------------|-----2-----2------------|
--0-----------------------|--0-----------------------|--0---------------------|
--------------------------|--------------------------|------------------------|


  E  E  E  E  E  E  E  E     E  E  E  E  E  E  E  E   
--------------------------|--0--------------------3--|
--------1-----0--------1--|--------1-----0-----3-----|
--------------------2-----|-----------------2--------|
-----2-----2-----2--------|-----2-----2--------------|
--0-----------------------|--0-----------------------|
--------------------------|--------------------------|


  E  E  E  E  E  E  E  E     E  E  E  E  E  Q.        E  E  E  E  E  E  E  E   
--L--------------2--3--5--|--0---------------------|--------------------------|
--------0-----0-----------|--------1-----0---------|--------1-----0--3--1--0--|
-----------------2--------|-----------------2------|-----------------2--------|
-----0-----0--------------|-----2-----2------------|-----2-----2--------------|
--0-----------------------|--0---------------------|--0-----------------------|
--------------------------|------------------------|--------------------------|


  E.  S E  E  E  Q    E     E.  S E  E  E  Q    E     E  E  E  E  E  Q.      
--------0----------------|--------0----------------|--------3---------------|
--0----------------------|--0-------------------1--|--3---------------------|
------2-------0-------2--|------2-------0----------|--------------2--0------|
-----------------3-------|-----------------3-------|-----0-----0------------|
-----------3-------------|-----------3-------------|------------------------|
--1----------------------|--1----------------------|--3---------------------|


                           ^                  
  E  E  E  E  E  Q.        W                  
--L---------------------|-------------------||
--------0---------------|--0----------------||
--------------2--0------|--0----------------||
-----0-----0------------|--2----------------||
------------------------|--0----------------||
--3---------------------|-------------------||




Duration Legend
---------------
W - whole
H - half
Q - quarter
E - 8th
S - 16th
T - 32nd
X - 64th
. - note dotted
|-n-|  - n-tuplets


Tablature Legend
----------------
L - tied note
x - dead note
g - grace note
(n) - ghost note
> - accentuded note
NH - natural harmonic
AH - artificial harmonic
TH - tapped harmonic
SH - semi harmonic
PH - pitch harmonic
h - hammer on
p - pull off
b - bend
S - shift slide
s - legato slide
/ -  slide into from below or out of upwards
\ -  slide into from above or out of downwards
~ - vibrato
W - wide vibrato
tr - trill
TP - tremolo picking
T - tapping
S - slap
P - pop
< - fade in
^ - brush up
v - brush down

        
Comments

No comments yet