Gametabs
Home
Tabs
Random

Shrouded Mystery

Average rating: No ratings

Composer:

Tabber:

Style:

Instrument:

Created: February 26, 2016 at 12:00 AM

            Shrouded Mystery
Lagoon
Composer: Hideki Suzuki
Tabbed by BB
11/15/15

Lead

e|--7~---|---5-7-8-7-5-7~---|---5-----5--7~---|----------5----|
B|-------|------------------|------8----------|--6----8-------|
G|-------|------------------|-----------------|---------------|
D|-------|------------------|-----------------|---------------|
A|-------|------------------|-----------------|---------------|
E|-------|------------------|-----------------|---------------|

e|-------5--7~--|---5-7-8-7-5-7~---|---5-----5--7~---|----------5----|
B|---8----------|------------------|------8----------|--6----8-------|
G|--------------|------------------|-----------------|---------------|
D|--------------|------------------|-----------------|---------------|
A|--------------|------------------|-----------------|---------------|
E|--------------|------------------|-----------------|---------------|

Repeat as much as you like

Second Guitar

e|--7-------7-------|--5-------5-------|--7-------7-------|-----------------------10--|
B|----8---8---8---8-|----6---6---6---6-|----8---8---8---8-|--10-------------13--------|
G|------7-------7---|------5-------5---|------9-------9---|-----10----10-10----12-----|
D|------------------|------------------|------------------|--------12-----------------|
A|------------------|------------------|------------------|---------------------------|
E|------------------|------------------|------------------|---------------------------|




        
Comments

No comments yet