Gametabs
Home
Tabs
Random

Si Deus Me Relinquit

Average rating: No ratings

Composer:

Tabber:

Style:

Instrument:

Created: March 24, 2012 at 12:00 AM

            Guitar 1

      Q     Q     Q.      E      Q.      E   H         
E||--------13----13------12--|--12------10--10--------|
B||--15----------------------|------------------------|
G||--------------13----------|--10--------------------|
D||--------------------------|------------------------|
A||--------------------------|------------------------|
E||--------------------------|------------------------|


   Q.      E   Q.      E     H         H            Q.      E   Q.      E   
--17------15--15----------|---------------------|--------------17------15--|
----------------------17--|---------------------|--13------12--------------|
--16----------16----------|-----------14--------|--------------------------|
--------------------------|-----------15--------|--------------------------|
--------------------------|---------------------|--------------------------|
--------------------------|---------------------|--------------------------|


   Q.      E   H            H         Q.      E      W                 
------------------------|--10--------12------13--|--13----------------|
----------12--13--------|------------10----------|--------------------|
--14----------11--------|--12--------------------|--14----------------|
------------------------|------------------------|--------------------|
------------------------|------------------------|--------------------|
------------------------|------------------------|--------------------|


   Q.      E   Q.      E      Q.      E   H            Q.      E   Q    S  E.   
--20------18--18----------|--18------17---0--------|--17------15----------15---|
--------------17------18--|--17--------------------|----------------------13---|
--19----------17----------|--------------14--------|--17----------15------14---|
--------------------------|--------------15--------|---------------------------|
--------------------------|------------------------|---------------------------|
--------------------------|------------------------|---------------------------|


  E.   E   H         E.     E.   E   Q.      E   E.     E.   E   H         E.   
--L---13--13--------17---|--L---15--15------12--15---|--L---13-----------------|
--L-------13--------15---|--L-------14----------13---|--L-----------------15---|
--L-------14--------14---|--L-------12----------12---|--L----------------------|
-------------------------|---------------------------|----------15--------15---|
-------------------------|---------------------------|-------------------------|
-------------------------|---------------------------|-------------------------|


  Q    S  H         E.     H.           S  E.     E.   E   Q.      E   E.   
---------13-------------|-----------------20---|--L---18--18----------18---|
--L----L-----------15---|--L------------L-18---|--L-------17------18--17---|
------------------------|-----------------19---|--L-------17---------------|
--L----L-----------15---|--L-------------------|---------------------------|
------------------------|----------------------|---------------------------|
------------------------|----------------------|---------------------------|


  E.   E   H        E.     Q    S  Q.     E   E.     E.   E   H         E.   
--L---17---0------------|---------18---------15---|--L---13--13--------17---|
--L---------------------|--------------------13---|--L-----------------15---|
----------14------------|--------------------14---|--L-------14--------14---|
----------15------------|-------------------------|----------15-------------|
------------------------|-------------------------|-------------------------|
------------------------|-------------------------|-------------------------|


  E.   E   Q.      E   E.     E.   E   H         E.     Q    S  H         E.   
--L---15--15------12--15---|--L---13-----------------|---------13-------------|
--L-------14----------13---|--L-----------------15---|--L----L-----------15---|
--L-------12----------12---|--L-----------------15---|--L----L-----------14---|
---------------------------|----------15--------15---|--L----L-----------15---|
---------------------------|-------------------------|------------------------|
---------------------------|-------------------------|------------------------|


  H.           S E  S   
----------------------||
--L------------L------||
--L------------L------||
--L-------------------||
----------------------||
----------------------||




Guitar 2

     H        H           W                   E  E  Q    E  E  Q     
E||--------------------|-------------------|-------------------0----|
B||-----------1--------|--0----------------|--------0-------0-------|
G||--------------------|-------------------|------------------------|
D||--0-----------------|-------------------|-----3------------------|
A||--------------------|-------------------|-------------3----------|
E||--------------------|-------------------|--3---------------------|


  E  E  Q    H           E  E  Q    E  E  Q       H        Q    Q     
--------0-------------|-------------------0----|---------------------|
----------------------|--------3-------0--0----|----------------1----|
-----2-------2--------|--------4---------------|-----------2---------|
-------------0--------|-----0------------------|---------------------|
--3-------------------|-------------3----------|---------------------|
----------------------|--3---------------------|---------------------|


  E  E  E  E  E  E  Q       E  E  E  E  E  E  E  E     E  E  Q    E  E  Q     
-----------3--------0----|--------0--1--0-----------|-------------------0----|
--------3----------------|-----------------3-----3--|------------------------|
-----0-----------2-------|-----2--------------2-----|--------3-------3-------|
-------------------------|--0-----------------------|-----3------------------|
--2-----------4----------|--------------------------|-------------3----------|
-------------------------|--------------------------|--3---------------------|


  E  E  Q    E  E  S S S S    S E  E  E  E  E  E  E  S  
--------0----------0---1---|---------------------------|
---------------------------|----3-----------2----------|
-----2----------2----------|-------------0-----0-----2-|
-------------0-----------3-|--L----3--------------0----|
--3------------------1-----|----------0----------------|
---------------------------|---------------------------|


  S E  E  E  E  E  E  E  S    S Q    E  E  Q    E  S  
----0-----------0--1-------|-------------------------|
-------3-------------------|----3----------2---------|
--L----------2-------------|------------0----------2-|
-------------------------3-|--L----------------------|
----------3-----------1----|---------1----------0----|
---------------------------|-------------------------|


  S Q    E  E  E  E  E  S    S E  E  E  E  Q    E  S    S E  E  Q    Q    E  S  
------------------0-------|--------------------------|----0--1--0--------------|
----1----------0----------|----3-----------2---------|---------------3---------|
--L-----------------------|-------------0--0-------2-|--L----------------------|
------------3-----------0-|--L----0-------------0----|-----------------------3-|
--------------------------|----------0---------------|-------------------------|
---------4-----------3----|--------------------------|--------------------3----|


  S Q    E  E  Q    E  S    S E  E  E  E  E  E  E  S  
---------------0---------|----0-----------0--1-------|
----3--------------------|---------------------------|
----3-------3----------2-|--L----2-----2-------------|
--L----------------------|----------0--------------3-|
---------3----------3----|----------------------1----|
-------------------------|---------------------------|


  S E  E  E  E  E  E  E  S    S E  E  E  E  E  E  E  S  
----------------0----------|----0--1--------0--1-------|
----3----------------------|---------------------------|
-------------0-----0-----2-|--L----------2-------------|
--L----3--------------0----|-------------------------3-|
----------0----------------|----------3-----------1----|
---------------------------|---------------------------|


  S E  E  E  E  Q    E  S    S E  E  E  E  E  E  E  S  
--------------------------|-------------------0-------|
----3-----------2---------|----1-----------0----------|
-------------0------------|---------------------------|
--L----3----------------3-|--L----3-----3-----------0-|
----------1----------0----|---------------------------|
--------------------------|----------4-----------3----|


  S E  E  E  E  E  E  E  S    S E  E  Q    Q    E  S   
---------------------------|----0--1--0--------------||
----3-----------2----------|---------------3---------||
-------------0-----0-----2-|--L----------------------||
--L----0--------------0----|-------------------------||
----------0----------------|-------------------------||
---------------------------|-------------------------||

        
Comments

No comments yet