Gametabs
Home
Tabs
Random

Title Screen

Average rating: 5.000

1 ratings

Composer:

Tabber:

Style:

Instrument:

Created: June 01, 2021 at 12:00 AM

            Title: Title Screen
Album: Kirby's Epic Yarn
Music: Tomoya Tomita
Tabber: H.F.

Tempo = 120

Legend
^ - brush down

                                
E |--7-----4--7--7-----4--7----|
B |--5--5-----5--5--5----------|
G |----------------------------|
D |--6--------6--6-------------|
A |----------------------------|
E |----------------------------|

                                                                                
--4--5-----------------------4-----------------------0-----------------------2--
-----2-----------------------------------------------0--------------------------
--------------------------------------------------------------------------------
-----2-----------------------------------------------4--------------------------
--------------------------------------------------------------------------------
--------------------------------------------------------------------------------

                                                     
-----------------------|--7-----4--7--7-----4--7----|
-----------------------|--5--5-----5--5--5----------|
-----------------------|----------------------------|
-----------------------|--6--------6--6-------------|
-----------------------|----------------------------|
-----------------------|----------------------------|

                                                                                
--4--5-----------------------4-----------------------2--------------------------
-----2-----------------------------------------------0--------------------------
--------------------------------------------------------------------------------
-----2-----------------------------------------------1--------------------------
--------------------------------------------------------------------------------
--------------------------------------------------------------------------------

                                                     
-----------------------|--7-----4--7--7-----4--7----|
-----------------------|--5--5-----5--5--5----------|
-----------------------|----------------------------|
-----------------------|--6--------6--6-------------|
-----------------------|----------------------------|
-----------------------|----------------------------|

                                                                                
--4--5-----------------------4-----------------------0--------------------------
-----2-----------------------------------------------0-----------------------7--
--------------------------------------------------------------------------------
-----2-----------------------------------------------4--------------------------
--------------------------------------------------------------------------------
--------------------------------------------------------------------------------

                                                     
-----------------------|--5--------5--5--------5----|
-----------------------|--------7-----------7-------|
-----------------------|-----7-----------7----------|
-----------------------|--7-------------------------|
-----------------------|----------------------------|
-----------------------|----------------------------|

                                                                                
-----12----------------------12-------------------------------------------------
--12-14----------------------12-------------------------------------------------
-----------------------------------------------------14-------------------------
--------------------------------------------------------------------------------
--------------------------------------------------------------------------------
--------------------------------------------------------------------------------

                                                                                
-----------------------|--4-----4----|-------------|--2-----2----|--0----------|
-----------------------|--5----------|--7----------|--2--0-------|--0----------|
-----------------------|--6--6-------|--8----------|--1----------|--2----------|
-----------------------|--7----------|--9----------|-------------|-------------|
-----------------------|-------------|-------------|-------------|-------------|
-----------------------|-------------|-------------|-------------|-------------|

                                                          ^
--4-----4----|--2----------|--2-----2----|--0----------|--16---------||
--2--2-------|--4----------|--2----------|--2----------|--14---------||
--4----------|--6----------|--4--4-------|--2----------|--16---------||
-------------|-------------|-------------|-------------|-------------||
--0----------|--2----------|-------------|--0----------|-------------||
-------------|-------------|--4----------|-------------|-------------||


        
Comments

No comments yet