Gametabs
Home
Tabs
Random

Rainbow Resort

Average rating: 5.000

2 ratings

Composer:

Tabber:

Style:

Instrument:

Created: September 30, 2007 at 12:00 AM

            Rainbow Resort
Kirby's Adventure

7/24/06

e--9-7-------------------------------9-7------------------9-7
B------10-9--7-9-10----------------------10-9---7-9-10-------
G-------------------11---------------------------------11----
D----------------------11-9----------------------------------
A------------------------------------------------------------
E------------------------------------------------------------

e--14-12-10-9---7-5-2-9-4-12-5--12-9-2-5-7---14
B----------------------------------------------
G----------------------------------------------
D----------------------------------------------
A----------------------------------------------
E----------------------------------------------

        
Comments

No comments yet