Gametabs
Home
Tabs
Random

Revenge of Meta Knight Ending

Average rating: 4.800

5 ratings

Composer:

Tabber:

Style:

Instrument:

Created: February 04, 2008 at 12:00 AM

            MetaKnight's revenge ending guitar tab
tabbed by: Yoshistrings

E-----------------------------------------------------------------------
b-------------------3-5-------------------------------------------------
d------0-2---2-4-5-2-----5-4-5-4-------0-2---0---0----------------------
g----2-------------------------------2-----2-------2--0-2-3-2-----------
a---------------------------------------------3-------------------------
e-----------------------------------------------------------------------

E---------------------------------------0-3-5-3-0-3-0-----------------------
b--------------------3-5------------------------------3-5-1-----------------
d------0-2---2-4-5-2-----5-4-5-4--4-2-0---------------------2-0-----0-2-----
g----2------------------------------------------------------------2---------
a---------------------------------------------------------------------------
e---------------------------------------------------------------------------

E------------------------5-5-5-3-0---0-3-----0-------
b------------3-1-------------------3-----3-----3-----
d----2-4-5-2-----2-0-2---------------------2-----0-2-
g----------------------2-----------------------------
a----------------------------------------------------
e----------------------------------------------------

E----0-5-0---0---3------------------------------
b--------------1---3-1-3---3-2-----1---------0--
d----------2-------------0-----3-----2---0-2----
g--------------------------------4-----3--------
a-----------------------------------------------
e-----------------------------------------------

E-----------------------------0---0-3-2---0-3-5-2-2-3-5-7-7-7-7-7-7-7-3-0----
b----1-0-1-3-1-0-1-1-0------1---3-------3------------------------------------
d----------------------2-2---------------------------------------------------
g----------------------------------------------------------------------------
a----------------------------------------------------------------------------
e----------------------------------------------------------------------------

E----------1-----------1-----------------------------------------------------
b----3-1-3---3-1-3-1-3-------------------------------------------------------
d----------------------------------------------------------------------------
g----------------------------------------------------------------------------
a----------------------------------------------------------------------------
e----------------------------------------------------------------------------

(repeat)

        
Comments

@Cjad (February 07, 2008 at 7:17 AM)

This is a great tab. I always loved the little song at the end of that game, and I think you've got it spot on. Now if my e string would stop snapping, I might be able to play the whole thing. :P


@ciscokid90 (May 05, 2008 at 9:49 PM)

good


@chiefstrat (March 19, 2009 at 6:56 PM)

i think you switched the G and D string.


@Supreme Dirt (November 22, 2009 at 11:40 PM)

Great song. Sounds great on my new jazz strings.


@Musicman (June 12, 2020 at 11:18 AM)

Amazing song and it sounds really great.