Gametabs
Home
Tabs
Random

Roxas' Theme

Average rating: 4.800

5 ratings

Composer:

Tabber:

Style:

Instrument:

Created: February 19, 2010 at 12:00 AM

            Roxas' Theme - Kingdom Hearts II
Arranged by: Max_depa
Composed by: Yoko Shimomura

   Q  Q  Q  Q   Q  Q  Q  Q    Q  Q  Q  Q    Q  Q  H     Q  Q  Q  Q   Q  Q  H
|e|-1--L-----1-|-0-----0----|-------------|-----------|-------------|-------1--|
|B|------------|-------1--L-|-----3--1----|--1--L-----|--------1--3-|-1--L-----|
|G|-------2----|----0-------|--0-----3--3-|-----------|-----3--3--3-|----------|
|D|-------3--L-|------------|-----3-------|--------3--|-----3-------|-------3--|
|A|----3-------|-3----------|--1----------|-----3-----|--1----------|----3-----|
|E|-1----------|------------|-------------|--1--------|-------------|-1--------|

  Q  Q  Q  Q   Q  Q  Q  Q  X2 Q  Q  Q  Q   Q  Q  Q  Q   Q  Q  Q  Q   Q  Q  Q  Q
|------------|----------0--||-1--3--5--1-|-3--L--1--0-|------------|-0-----0----|
|------------|----1--3-----||------------|------------|-3--L-------|------------|
|-3--2--3--2-|-3--------3-.||------------|------------|-------2--L-|-0--------0-|
|----3-------|-------3----.||------------|------------|-------0----|----3--2----|
|-1----------|-1--1--------||-------1--L-|-------3--L-|----0-------|------------|
|------------|-------------||----1-------|----3-------|------------|------------|

  Q  Q  Q  Q   Q  Q  Q  Q   Q  Q  Q  Q   Q  Q  H   Q  Q  Q  Q
|-1--3--5--1-|-3--L--1--0-|------------|---------|------------|
|------------|------------|-3-----3----|---------|-3-----0----|
|------------|------------|------------|---------|----0-----0-|
|------------|------------|-------0----|-3--2--0-|------------|
|-------1--L-|-------3--L-|----0-----0-|---------|------------|
|----1-------|----3-------|------------|---------|-3----------|

  Q  Q  Q  Q   Q  Q  Q  Q   Q  Q  Q  Q   X2 from the beginning
|------------|------------|--------------||
|-1-----1----|-3-----3----|-1-----1------||
|------------|------------|-------------.||
|-------3----|----0--3--0-|-------3-----.||
|----3-----3-|------------|----3-----3---||
|-1----------|-3----------|-1------------||



Duration Legend
---------------
W - whole
H - half
Q - quarter
E - 8th
S - 16th
T - 32nd
X - 64th
. - note dotted
|-n-|  - n-tuplets
L - tied note

        
Comments

@diralark (February 26, 2010 at 7:45 PM)

it sounds really nice


@Max_depa (March 02, 2010 at 10:10 PM)

i'm glad you like it^^