Gametabs
Home
Tabs
Random

Riku's Theme

Average rating: 4.000

1 ratings

Composer:

Tabber:

Style:

Instrument:

Created: May 12, 2009 at 12:00 AM

            Riku's Theme
Kingdom Hearts 2
Yoko Shimomura
Diz
May 11, 2009

e---------------------------------------
B---------------------------------------
G----5----5----5-------3----3----3------
D----5----5----5-------3----3----3------
A--3----3----3-------1----1----1--------
E---------------------------------------

e---------------------------------------
B-11---13----------13---11-9-8----------
G---------10-12-13--------------8-------
D---------------------------------8-----
A---------------------------------------
E---------------------------------------

e---------------------------------------
B---------------------------------------
G------8--------------------------------
D-8-10----8-6-5-3-------6-5-6-8--6-8-5-3
A--------------------3------------------
E---------------------------------------

e---------------------------------------
B---------------------------------------
G---------------------------------------
D------6-5-6-8--10-8-6-8-5-5--3-8-6-5-5-
A-4-3-----------------------------------
E---------------------------------------

e---------------------------------------
B---------------------------------------
G---------------------------------------
D-3-8-10-5-3----------------------------
A---------------------------------------
E---------------------------------------

        
Comments

@danny865 (May 31, 2009 at 2:29 PM)

I'm not sure about the intro part though, but I understand that it can be difficult to tab that. Good tab!


@Max_depa (February 18, 2010 at 12:19 PM)

the intro should be like this:

Q H Q H Q W Q H Q H Q W ||--------------------------------------------- ||----1----1----1---------------------------- ||----1----1----1---------3----3-----3------- ||--3----3----3--------1-5--1-5--1-5----- ||---------------------------------------------- ||----------------------------------------------