Gametabs
Home
Tabs
Random

Missing You

Average rating: 5.000

1 ratings

Composer:

Tabber:

Style:

Instrument:

Created: August 14, 2020 at 12:00 AM

                                             MISSING YOU                                   


Traccia 1 (Capo 1)
     E  E  E  E  E  E  E  E     E  E  E  E  E  Q.      
E||--1--L--------------1--2--|--1--L------------------|
B||--2--L--------------------|--2--2------------------|
G||--3--L--3--L-----3--------|--1-----3--L--L--3------|
D||--1-----1--3--4--L--1--L--|-----4--------1--L------|
A||-----1--------------------|--2--L--2--4------------|
E||--------------------------|------------------------|


  E  E  E  E  E  E  E  E     E  E  E  E  Q    Q     
-----0--------------------|------------------------|
-----2--2-----------------|-------------------1----|
--1--1-----1--------1--L--|--1--L--1-----3---------|
--2-----------4--L--------|--1--1-----1------------|
--0--L--0--2--4--2--0-----|--3--L--L--L--L----L----|
-----------------------0--|------------------------|


  E  S S E  E  E  E  E  S S    E  S S E  E  E  S S E  E   
--------------------------0-|--2--L----------------------|
--4--L-4-L--4--2--L--L--4---|-------5-L--4--5--L-4-L--2--|
--1--L-1-L--1--2--L--L------|--2--L-L-L--2--2--L-2-L--2--|
-----2-L----2---------------|-----2-L----2-----2-L----2--|
--0------0-----2-----4------|--0------0-----0------0-----|
------------------0-----0-L-|----------------------------|


  E  E  E  E  E  E  E  S S    E  S S E  E  E  E  E  S S  
---------------------------|-------0-L----------------0-|
--4--L--L--0--L--L-----0-2-|--4--L------4-----------4---|
--4--L--L--1--L--L--1------|--1--L-1-L--1--1--L--L------|
--------2-----4------------|---------------2--L--L------|
-----2-----2-----2-----2-L-|-----2-L----2-----2-----2-L-|
--0------------------------|--0------0-----0-----0------|


  E  S S E  E  E  E  E  E     E  E  E  E  E  S S E  E   
--2--L-5-L--4--------------|------------------------0--|
---------------2--L--2-----|-----------0--2--L-4-L--2--|
--2--L-2-L--2--2--L--------|--------2--1--2--L-4-L-----|
--4---------2-----2-----2--|-----2-----2-----2-L----2--|
---------0-----2--L--L--L--|--0--L--L--L--0------0-----|
-----0-L-------------------|---------------------------|


  E  E  E  E  E  E  E  E     E  E  E  E  E  E  E  E          
--2--L--L--4--L--L--L--L--|--4--L--L--6--L--L--L--L--|-----||
--0--L--L--0--L--L--0-----|--2--------3--------3-----|-----||
--1-----1-----3-----------|--1-----3--3--5-----------|-----||
-----1-----1-----1-----1--|-----3-----3-----3-----3--|-----||
--------------------------|--------------------------|-----||
--------------------------|--------------------------|-----||




Duration Legend
---------------
W - whole
H - half
Q - quarter
E - 8th
S - 16th
T - 32nd
X - 64th
. - note dotted
|-n-|  - n-tuplets


Tablature Legend
----------------
L - tied note
x - dead note
g - grace note
(n) - ghost note
> - accentuded note
NH - natural harmonic
AH - artificial harmonic
TH - tapped harmonic
SH - semi harmonic
PH - pitch harmonic
h - hammer on
p - pull off
b - bend
br - bendRelease
pb - preBend
pbr - preBendRelease
brb - bendReleaseBend
\n/ - tremolo bar dip
\n - tremolo bar dive
-/n - tremolo bar Release up
/n\ - tremolo bar inverted dip
/n - tremolo bar return
-\n - tremolo bar Release down
S - shift slide
s - legato slide
/ -  slide into from below or out of upwards
\ -  slide into from above or out of downwards
~ - vibrato
W - wide vibrato
tr - trill
TP - tremolo picking
T - tapping
S - slap
P - pop
< - fade in
^ - brush up
v - brush down

        
Comments

No comments yet