Gametabs
Home
Tabs
Random

Ambiguous

Average rating: 5.000

6 ratings

Composer:

Tabber:

Style:

Instrument:

Created: March 12, 2015 at 12:00 AM

                                      Ambiguous - GARNiDELiA

Dropped D Tuning
BPM - 178


     E  E  E  E  E  Q    E     E  E  E  Q    Q.        E  E  E  E  E  Q     E   
E||--------5----------------|-----------8-----------|--3-----5-----------------|
B||--8--------6-------------|-----6-----6----8------|-----------6-----------8--|
G||--7--------------5----7--|----------------7------|-----------------5-----9--|
D||-----0-------------------|-----------------------|-----3--------------------|
A||-------------------------|-----------------------|--------------------------|
D||--0-----------0----------|--8-----8--------------|--3-----------3-------10--|


   E  E   E  Q     Q    E     W                   W                 
------8------9-------------|-------------------|-------------------|
------------------10----8--|--6----------------|-------------------|
-------------9-----9----0--|--7----------------|-------------------|
---------------------------|--7----------------|-------------------|
-------------0-------------|-------------------|-------------------|
---------10----------------|--0----------------|-------------------|


  E  E  E  E  E  E  E  E     E  E  E  E  E  E   E  E   
--------5-----------------|--------5------------------|
--6--8-----6-----------6--|-----8-----6---------6--8--|
--7--------------7-----7--|-----------------7---------|
--------------------------|---------------------------|
--------------------------|---------------------------|
--0-----------0-----------|--8-----------8------------|


  E  E  E  E  E  E  E  E     E  E  E  E  E  E  E  E   
--------5-----------------|-----3--5-----------6--5--|
-----8-----6-----------6--|-----------6--5--3--------|
-----------------7--------|--------------------------|
--------------------------|--------------------------|
--8-----------8-----------|--------------3-----------|
--------------------------|--5-----------------------|


  E  E  E  E  E  E  E  E     E  E  E  E  E  E   E  E   
--------5-----------------|--------5------------------|
-----8-----6-----------6--|-----8-----6---------6--8--|
-----7-----------7-----7--|-----------------7---------|
--------------------------|---------------------------|
--------------------------|---------------------------|
--0-----------0-----------|--8-----------8------------|


  E  E  E  E  E  E  E  E     E  E  E  E  E   Q.        E  E  E  E  Q    E  E   
--------5-----------------|--------5---------8------|--------------3----3--3--|
-----8-----6-----------6--|-----8-----6--8---8------|--------1-----1----------|
-----------------7--------|------------------9------|--------0----------------|
--------------------------|-----------------10------|-----2-----2-------------|
--8-----------8-----8-----|-------------------------|--0-----------0----------|
--------------------------|--5-----------5----------|-------------------------|


  E  E  E  E  Q    E  E     E  E  Q    E  E  E  E     Q    Q    Q    Q     
--------1--0-------------|-----0-------------0--1--|--0-------------------|
-------------------1--3--|-----1-------------------|-------3----1----3----|
-------------------0--0--|-----0----------0--------|--2---------0---------|
-----3-------------------|-------------------------|--0---------2---------|
-------------------------|--3-----3----3-----3-----|----------------------|
--3-----------3----------|-------------------------|------------2---------|


  Q    E  H        E     Q    E  Q.     E  E     Q    Q    Q    E  E   
----------0-----------|----------0------------|-------0---------------|
----------1-----------|----------1------1--3--|-------1---------1--3--|
--2-------------------|-------2---------------|-------0---------0--0--|
-------2--------------|-----------------------|-----------------------|
--0-------0-----------|-----------------------|--3---------3----------|
----------------------|--3--------------------|-----------------------|


  Q    Q    H           Q    E  E  Q    E  E     Q    E  E  Q    E  E   
-------0-------------|-------0-----3----3--3--|-------1--0-------------|
------------0--------|-------1-----1----1--1--|-------1--1-------1--3--|
------------0--------|--2----2----------------|------------------0--0--|
--0---------2--------|--2---------------------|-------x----------x-----|
---------------------|--0-------0-------------|-------x----------x-----|
------------2--------|-------x----------x-----|--3----------3----------|


  E  E  E  E  E  E  E  E     Q    Q    Q    Q       Q    E  Q    E  E  E   
-----0--------------0--1--|--0---------3---------|----------0----0-----0--|
-----1--------------1--1--|-------3----0----0----|----------1----1-----1--|
-----0--------------------|--2----2----0----0----|--2-------2----2-----2--|
--------------2-----------|--0--------------2----|--2----x--2----2--x--2--|
--3--------3-----3--------|-----------------x----|--0----x--0----0--x--0--|
--------x-----------x-----|-------x----2---------|-------x----------x-----|


  Q    E  Q    E  E  E     Q    Q    Q    E  E     Q    Q    Q.     E   
----------0-------------|-------0---------------|-------0--------------|
----------1----1--1--3--|-------1---------1--3--|------------0------1--|
----------2----0--0--0--|-------0---------0--0--|------------0------2--|
--3----x----------------|-----------------------|--0---------2---------|
-------x----------------|--3---------3----------|----------------------|
--3----x--3-------------|-------x---------x-----|------------2------3--|


  E  E  E  E  E  E  E  E     E  E  Q    Q    E  E     E  E  E  E  E  E  E  E   
-----3--3--3--3--1--0-----|-----0------------------|-----3--3--3--3--1--0-----|
-----------------------3--|--------3------------1--|-----------------------3--|
-----------------------4--|---------------------2--|-----------------------4--|
--------------------------|---------------------2--|--------------------------|
--------------------------|---------------------0--|--------------0-----------|
--------------3--------5--|-------------5----5-----|-----------------------5--|


  E  E  Q    Q.     E     E  E  E  E  E  E  E  E     E  Q    E  E  Q    E   
-----0-----------------|-----3--3--3--3--5--3--3--|-----8----7----------5--|
-----------------------|--------------------------|-----8----8-----8----5--|
--------4----5------5--|--------------5-----------|----------------7----6--|
-----------------------|--------------------------|------------------------|
-------------0---------|--------------------------|------------------------|
--------5-----------3--|--------------3-----------|--5----------5-------7--|


  E  Q    E  E  Q    E     W                   E  E  E  E  E  Q    E   
---------------------5--|-------------------|--------5----------------|
-----8----5-----8----5--|-------------------|--8--------6-------------|
---------------------6--|-------------------|--7--------------5----7--|
------------------------|-------------------|-----0-------------------|
------------------------|-------------------|-------------------------|
-------------7-------7--|-------------------|--0-----------0----------|


  E  E  E  Q    Q.        E  E  E  E  E  Q    E     Q.     Q    Q    E   
-----------8-----------|--3-----5-------------3--|---------0----1----1--|
-----6-----6----8------|-----------6----------1--|---------1----1----3--|
----------------7------|-----------------5-------|-------------------2--|
-----------------------|-----3-------------------|-------------------0--|
-----------------------|----------------------3--|----------------------|
--8-----8--------------|--3-----------3----------|----------------------|


  E  E  E  E  E  Q    E     E  E  E  E  E  E  E  E     Q    E  E  E  Q    E   
-----1--1--0--1--3----1--|-----1--1-----------1--3--|--5-------------8----3--|
-----3--3--3--3--3----3--|-----3--3--1-----5--------|-------6--8----------1--|
-----2--2--2--2--2-------|--------------------------|---------------------0--|
-----------0-------------|--------------------------|------------------------|
----------------------1--|--------------1-----------|--8----------8-------3--|
-------------------------|--------------------------|------------------------|


  E  E  E  E  H           E  E  E  E  E  Q    E     E  E  E  Q    Q.      
-----3--3--5--5--------|--------5----------------|-----------8-----------|
-----1-----2--2--------|--8--------6-------------|-----6-----6----8------|
-----0-----2--2--------|--7--------------5----7--|----------------7------|
--------x-----2--------|-----0-------------------|-----------------------|
-----3--x-----0--------|-------------------------|-----------------------|
--------x--------------|--0-----------0----------|--8-----8--------------|


  E  E  E  E  E  Q     E      E  E   E  Q     Q    E     Q    Q    Q    E  E   
--3-----5-----------------|------8------9-------------|-----------------8--3--|
-----------6-----------8--|------------------10----8--|--6--------------------|
-----------------5-----9--|-------------9-----9----0--|--7-----------------0--|
-----3--------------------|---------------------------|--7--------------------|
--------------------------|-------------0-------------|-----------------------|
--3-----------3-------10--|---------10----------------|--0----0----0-------5--|


  Q    Q    Q    E  E     Q    E  Q    Q    E     E  Q    Q    Q    E   
-----------------------|----------3----5----1--|-----0-----------------|
-----------------6--5--|--6----6------------3--|----------3----1----3--|
-----------------------|--0-------5------------|----------0----0----2--|
-----------------------|--0--------------------|--------------------0--|
-----------------------|----------0---------1--|----------3------------|
-------5----5----------|--5--------------------|-----------------------|


  E  E  E  E  E  E  E  E     E  E  E  E  E  E  E  E   
--------5-----------------|--------5-----------------|
-----8-----6-----------6--|-----8-----6--8-----6--8--|
-----------------7-----7--|--------------7--7--------|
--------------------------|--------------------------|
--------------------------|--------------------------|
--0-----------0-----------|--8-----------8-----------|


                                                NH        
  E  E  E  E  E  E  E  E     E  E  E  E   E     E  E  E   
--------5-----------------|--------5------8--------6--5--|
--6--8-----6-----------6--|-----8-----6------------------|
-----------------7--------|------------------------------|
--------------------------|------------------<>12--------|
--8-----------8-----------|------------------------------|
--------------------------|--5-----------10--------------|


  E  E  E  E  E  E  E  E     E  E  E  E  Q     E  E   
--------------------------|--------5-----------5-----|
--------8--6-----------6--|-----8-----6--8--------8--|
-----7-----------7-----7--|--------------7-----------|
--------------------------|--------------------------|
--------------------------|--------------------------|
--0-----------0-----------|--8-----------8-----------|


  E  E  E  E  E  E  E  E     E  Q    Q    Q.        E  E  E  E  E  Q     E   
-----1--------3-----5--3--|----------0-----------|--3--5--------3--8----10--|
--------1-----------------|-----6---------1------|--------6-------------10--|
-----------2--------------|----------------------|--5--------5--------------|
--------------------------|----------------------|--------------------------|
--------------------------|----------3-----------|--3-----------------------|
--3--------------3-----5--|----------------------|-----------------------0--|


  W                  
-------------------||
-------------------||
-------------------||
-------------------||
-------------------||
-------------------||



        
Comments

@RaisonDetrah (March 12, 2015 at 1:56 PM)

Simply a Masterpiece :)