Gametabs
Home
Tabs
Random

Yasashisa ni Tsutsumareta Nara

Average rating: 5.000

6 ratings

Composer:

Tabber:

Style:

Instrument:

Created: December 02, 2012 at 12:00 AM

                                            Yasashisa Ni Tsutsumareta Nara
                                (Kiki's Delivery Service Ending song)
                                
Kiki's Delivery Service OST
Composed by Joe Hisaishi
Arranged for guitar by Basisti94 (Miro Laaksonen)
1.12.2012



Tune down 1 step to play on original key


Vocal melody
     Q.     E  E  Q    E     H        H           Q.     E  E  E  E  E   
E||---------3--2----------|--0-----------------|------------------------|
B||---------------3----0--|--------------------|------------3-----------|
G||--0--------------------|-----------2--------|--2------4-----2-----2--|
D||-----------------------|--------------------|------------------4-----|
A||-----------------------|--------------------|------------------------|
E||-----------------------|--------------------|------------------------|


  H.           Q       Q.     E  E  E  S  S S  S    H.           E  E   
--------------------|------------3--2------------|---------------------|
--------------------|----------------------------|---------------------|
--0-----------------|--0------0--------4p-2-0h-2-|--2------------2--4--|
--------------------|----------------------------|---------------------|
--------------------|----------------------------|---------------------|
--------------------|----------------------------|---------------------|


  H        E  E  E  E     H.           Q       Q.     E  Q    S E  S  
-----------------3-----|--------------------|---------3--2-----------|
--3--------L--5-----5--|--3-----------------|-----------------3----5-|
-----------------------|--------------------|--0----------------4----|
-----------------------|--------------------|------------------------|
-----------------------|--------------------|------------------------|
-----------------------|--------------------|------------------------|


  H        H           Q.     E  E  E  E  E     H.           Q     
--------------------|------------------------|--------------------|
--5-----------------|------------3-----------|--------------------|
-----------2--------|--2------4-----2-----2--|--0-----------------|
--------------------|------------------4-----|--------------------|
--------------------|------------------------|--------------------|
--------------------|------------------------|--------------------|


  Q.     E  E  E  S  S S  S    H.           S E.     H        E  E  E  E   
------------3--2------------|---------------------|-----------------3-----|
----------------------------|-----------------3---|--3--------L--5-----5--|
--0------0--------4p-2-0h-2-|--2------------2-----|-----------------------|
----------------------------|---------------------|-----------------------|
----------------------------|---------------------|-----------------------|
----------------------------|---------------------|-----------------------|


  H        H           Q    E  E  E  E  E  E     E  Q    E  H         
--------------------|-------3--2--3--2--------|----------------------|
--3--------4--------|-------------------3-----|--3--5----5--L--------|
--------------------|----------------------4--|----------------------|
--------------------|-------------------------|----------------------|
--------------------|-------------------------|----------------------|
--------------------|-------------------------|----------------------|


  Q    E  S S E  E  E  E     E  Q    E  H           Q    E  E  E  S S Q     
-------3--2-3-L--2--------|----------------------|-------------------------|
--------------------3-----|--3--5----5--L--------|-------5--7--8--7-5-L----|
-----------------------4--|----------------------|-------------------------|
--------------------------|----------------------|-------------------------|
--------------------------|----------------------|-------------------------|
--------------------------|----------------------|-------------------------|


  Q    E  S  S  E  E  S E  S    H        E  E  S E  S    H.           E  S S  
-----------------------------|------------------------|----------------------|
-------7--8-10--L--8--7-5--3-|--3--------L-------3--5-|--5---------------3-3-|
-----------------------------|-----------------4------|----------------------|
-----------------------------|------------------------|----------------------|
-----------------------------|------------------------|----------------------|
-----------------------------|------------------------|----------------------|


  S S E  H.              Q    E  E  E  E  S E  S    H        E  E  E  E   
----------------------|-------------7--7--5-3--5-|--5--------------3--5--|
--3-1-1--L------------|--------------------------|--------------5--------|
----------------------|-------4--5---------------|-----------------------|
----------------------|--------------------------|-----------------------|
----------------------|--------------------------|-----------------------|
----------------------|--------------------------|-----------------------|

 1st time
 |---------------------------------------------------------------------
  Q.     E  H           Q    Q    S E.  E  E     H        S E.  E  E   
--7------5--L--------|--3---------------------|-----------------------|
---------------------|--------------5---3-----|-----------------------|
---------------------|---------------------4--|-----------------------|
---------------------|------------------------|-------------7---5--2--|
---------------------|------------------------|--5--------------------|
---------------------|------------------------|-----------------------|

------------------------------------------------------------------------
  Q    Q    E.  S E  E     E  E  E  E  E.  S Q       Q.     E  H         
--3-------------7-7--7--|--7--5--5---------5-5----|--7------5--5--------|
------------------------|-----------8--8----------|---------------------|
------------------------|-------------------------|---------------------|
------------------------|-------------------------|---------------------|
------------------------|-------------------------|---------------------|
------------------------|-------------------------|---------------------|

                         2nd time
---------------------|   |-----------------------------------
  H        H             Q.     E  H           W                 
--L------------------||--7------5--L--------|--L----------------|
---------------------||---------------------|-------------------|
--------------------*||---------------------|-------------------|
--------------------*||---------------------|-------------------|
---------------------||---------------------|-------------------|
---------------------||---------------------|-------------------|


  Q    E  E  E  E  E  E     E  Q    E  H           Q    E  S S E  E  E  E   
-------3--2--3--2--------|----------------------|-------3--2-3-L--2--------|
-------------------3-----|--3--5----5--L--------|--------------------3-----|
----------------------4--|----------------------|-----------------------4--|
-------------------------|----------------------|--------------------------|
-------------------------|----------------------|--------------------------|
-------------------------|----------------------|--------------------------|


  E  Q    E  H           Q    E  E  E  S S Q       Q    E  S  S  E  E  S E  S  
----------------------|-------------------------|-----------------------------|
--3--5----5--L--------|-------5--7--8--7-5-L----|-------7--8-10--L--8--7-5--3-|
----------------------|-------------------------|-----------------------------|
----------------------|-------------------------|-----------------------------|
----------------------|-------------------------|-----------------------------|
----------------------|-------------------------|-----------------------------|


  H        E  E  S E  S    H.           E  S S    S S E  H.            
------------------------|----------------------|----------------------|
--3--------L-------3--5-|--5---------------3-3-|--3-1-1--L------------|
-----------------4------|----------------------|----------------------|
------------------------|----------------------|----------------------|
------------------------|----------------------|----------------------|
------------------------|----------------------|----------------------|


  Q    E  E  E  E  S E  S    H        E  E  E  E     E  E  H.            
-------------7--7--5-3--5-|--5--------7--5--3--5--|--L--3--L------------|
--------------------------|-----------------------|---------------------|
-------4--5---------------|-----------------------|---------------------|
--------------------------|-----------------------|---------------------|
--------------------------|-----------------------|---------------------|
--------------------------|-----------------------|---------------------|


  W                    E.   S E   E   E.   S E   E   
--L----------------|--10---10----10--10---10----10--|
-------------------|--------------------------------|
-------------------|--------------------------------|
-------------------|--------------------------------|
-------------------|--------------------------------|
-------------------|--------------------------------|


   E.   S E   E   E.   S E   E      W                                      
--10---10----10--10---10----10--|--15----------------|-------------------||
--------------------------------|--------------------|-------------------||
--------------------------------|--------------------|-------------------||
--------------------------------|--------------------|-------------------||
--------------------------------|--------------------|-------------------||
--------------------------------|--------------------|-------------------||




Chords for second guitar:

Tune down 1 step to play on original key


[Intro]
G Am7 G Am7


G        A7     F#m   Bm      Em
Chiisai koro wa   Kami-sama ga ite
C             Am     Am7/D      Dsus4 D7
Fushigini yume o   Kanaete kureta
G           A7      F#m  Bm   Em
Yasashii kimochi de   Mezameta asa wa
C            Am      Am7/D  Bm B7
Otona ni nattemo   Kiseki wa okoru  yo


Em        C      Em           C
Kaaten o hiraite   Shizukana komorebi no
C             Am             Bm     Em
Yasashisa ni   Tsutsumareta nara   Kitto
      C    Am               Am7/D      D7sus4 D7
Me ni utsuru   Subete no koto wa   Meseeji

G


G        A7     F#m   Bm      Em
Chiisai koro wa   Kami-sama ga ite
C          Am     Am7/D      Dsus4 D7
Mainichi ai o   Todokete kureta
G           A7      F#m  Bm   Em
Kokoro no oku ni   Shimai wasureta
C           Am      Am7/D  Bm B7
Taisetsuna hako   Hiraku toki wa ima


Em          C        Em           C
Ame agari no niwa de   Kuchinashi no kaori no
C             Am             Bm     Em
Yasashisa ni   Tsutsumareta nara   Kitto
      C     Am              Am7/D      D7sus4 
Me ni utsuru   Subete no koto wa   Meseeji


Em        C      Em           C
Kaaten o hiraite   Shizukana komorebi no
C             Am             Bm     Em
Yasashisa ni   Tsutsumareta nara   Kitto
      C      Am             D7sus4      G
Me ni utsuru   Subete no koto wa   Meseeji

C G C G






Duration Legend
---------------
W - whole
H - half
Q - quarter
E - 8th
S - 16th
T - 32nd
X - 64th
. - note dotted
|-n-|  - n-tuplets


Tablature Legend
----------------
L - tied note
h - hammer on
p - pull off
b - bend
S - slide
/ -  slide into from below or out of upwards
\ -  slide into from above or out of downwards
~ - vibrato
^ - brush up
v - brush down

 

        
Comments

No comments yet