Gametabs
Home
Tabs
Random

Solo Menu (Viridi)

Average rating: 5.000

1 ratings

Composer:

Tabber:

Style:

Instrument:

Created: July 04, 2012 at 12:00 AM

            Solo Menu (Viridi)
Kid Icarus: Uprising
Composed by Yuzo Koshiro
Tabbed by hslesperance
7/4/12

Standard Tuning


    H.      Q     H.      E E   H.      Q     W
||----------7--|--------------|---------7--|-------|
||o------------|-10-------9-7-|-9----------|-10----|
||--9----------|--------------|------------|-------|
||-------------|--------------|------------|-------|
||o------------|--------------|------------|-------|
||-------------|--------------|------------|-------|


  H.      Q     H.      E E   H.       Q    W
|---------7--|--------------|---------11--|-9----|
|------------|-10-------9-7-|-9-----------|------|
|-9----------|--------------|-------------|------|
|------------|--------------|-------------|------|
|------------|--------------|-------------|------|
|------------|--------------|-------------|------|


  H.      Q    H.      E E   H.      Q    W
|------------|-------------|------------|-7----|
|---------7--|-------------|---------7--|------|
|-6----------|-8-------9-8-|-6----------|------|
|------------|-------------|------------|------|
|------------|-------------|------------|------|
|------------|-------------|------------|------|


   H.      E E   H    H      H.      Q    W
|--------------|-----------|------------|------|
|-10-------9-7-|------7----|------------|-7----|
|--------------|-6---------|-8-------9--|------|
|--------------|-----------|------------|------|
|--------------|-----------|------------|------|
|--------------|-----------|------------|------|


  H.      Q     W           H.      Q    W
|------------|-----------|----------7--|-9----|
|-7-------9--|-10--------|-10----------|------|
|------------|-----------|-------------|------|
|------------|-----------|-------------|------|
|------------|-----------|-------------|------|
|------------|-----------|-------------|------|


  +W            W
|-(9)--------|-11-----||
|------------|-------o||
|------------|--------||
|------------|--------||
|------------|-------o||
|------------|--------||


  H.      Q     W          H.      Q     W
|---------7--|-----------|---------7--|-------|
|------------|-10--------|-9----------|-10----|
|-9----------|-----------|------------|-------|
|------------|-----------|------------|-------|
|------------|-----------|------------|-------|
|------------|-----------|------------|-------|


  H.      Q     W          H.       Q    W
|---------7--|-----------|---------11--|-9----*|
|------------|-10--------|-9-----------|------*|
|-9----------|-----------|-------------|------*|
|------------|-----------|-------------|------*|
|------------|-----------|-------------|------*|
|------------|-----------|-------------|------*|

W - whole
H - half
Q - quarter
E - 8th
+ - note tied to previous
. - note dotted

        
Comments

No comments yet