Gametabs
Home
Tabs
Random

Long Journey Home

Average rating: 5.000

1 ratings

Composer:

Tabber:

Style:

Instrument:

Created: February 07, 2014 at 12:00 AM

            Kentucky Route Zero - Long Journey Home

Composer Unknown

Arranged for Solo Banjo by The Bedquilt Ramblers

Arranged for Solo Guitar by N0Stars

Gtr I (D A D G B E), Capo on Fret 1

!!!!!(An Instrumental Version is at the Bottom)!!!!!

PART A (INTRO)

 4/4
  Gtr I
  Q  Q.   E Q    Q.  E Q Q   a H  E E Q    Q  Q  Q  Q
|--------------|-----------|-------------|---------------|
|---------0----|-----3-----|-------------|----0-----0----|
|--------------|-0-----2-0-|-3h4--4-3-2--|-0--0-----0----|
|-0--0------2--|-----------|-------------|---------------|
|--------------|-----------|-------------|---------------|
|--------------|-----------|-------------|-5-----0-------|


  Q  Q  Q  Q     Q  Q  Q  Q    Q  Q  Q  Q    Q  Q  Q  E E
|--------------|-------------|-------------|---------------|
|----1---------|-------------|----0-----0--|----0-----3----|
|----0-----5---|----5-----5--|----0-----0--|----0-----0----|
|-2--------5---|----5-----5--|-0-----------|------------2--|
|-3------------|-3-----------|-------------|---------------|
|-------5------|-------5-----|-5-----0-----|-5-----0-------|


  Q  Q.   E E E   Q.   E Q  Q    a H    E E Q    Q.   E Q.    E
|---------------|--------------|---------------|------------------|
|---------0-----|------3-------|---------------|------3-0-----3---|
|---------------|-0------2--0--|-3h4----4-4-2--|-0----------------|
|-0--0------0-2-|--------------|---------------|------------------|
|---------------|--------------|---------------|------------------|
|-5-------------|--------------|---------------|------------------|


  Q  H    E E   Q  H    E E   Q.   E E E E E   Q  Q  Q  Q
|-------------|-------------|----------------|-------------||
|-0--3----3---|---------0---|------3---------|----0-----0--||
|---------4-0-|----2------0-|-0------2-0-----|-0--0-----0--||
|-------------|-0--4--------|------------2-0-|----0-----0--||
|-------------|----5--------|----------------|-------------||
|-------------|-------------|----------------|-5-----0-----||

PART B (VERSE)

Black
     smokes a    risin' and it surely  is  a    train

  Q  Q  E E Q    Q.   E Q  Q    a H    E E Q    Q  Q  Q  Q
|--------------|--------------|---------------|--------------|
|---------0----|------3-------|---------------|----0-----0---|
|--------------|-0------2--0--|-3h4----4-3-2--|-0--0-----0---|
|-0--0------2--|--------------|---------------|--------------|
|--------------|--------------|---------------|--------------|
|-5-----0------|-5------0-----|-5------0------|-5-----0------|

Surely is a    train, boys,  surely is a    train

  Q  Q  Q  Q    Q  Q  Q  Q    Q  Q  Q  Q    Q  Q  Q  E E
|-------------|-------------|-------------|--------------|
|----1--------|-------------|----0-----0--|----0-----3---|
|----0-----5--|----5-----5--|----0-----0--|----0-----0---|
|-2--------5--|----5-----5--|-0-----------|------------2-|
|-3-----------|-3-----------|-------------|--------------|
|-------5-----|-------5-----|-5-----0-----|-5-----0------|

Black
     smokes a    risin' and it surely  is  a    train   I'm

  Q  Q  E E E E   Q.   E Q  Q    a H    E E Q    Q.   E Q.   E
|---------------|--------------|---------------|----------------|
|---------0-----|------3-------|---------------|------3-0----3--|
|---------------|-0------2--0--|-3h4----4-4-2--|-0--------------|
|-0--0------0-2-|--------------|---------------|----------------|
|---------------|--------------|---------------|----------------|
|-5-----0-------|-5------0-----|-5------0------|-5------0-------|

  on    my       long  journey  home            |VERSES 1-3|

  Q  Q  Q  E E   Q  Q  Q  E E   Q.   E E E E E   Q  Q  Q  Q
|--------------|--------------|----------------|-------------||
|-0--3-----3---|----------0---|------3---------|----0-----0--||
|----------4-0-|----2-------0-|-0------2-0-----|-0--0-----0--||
|--------------|-0--4---------|------------2-0-|----0-----0--||
|--------------|-------0------|----------------|-------------||
|-5-----0------|-0------------|-5------0-------|-5-----0-----||

|FINAL VERSE|

  W
|-------------||
|-------------||
|-0-----------|| END
|-0-----------|| 
|-------------||
|-5-----------||

PART C (BREAK)

  a Q  H    Q    +Q   E E E E E E   Q  Q  Q  Q    Q  E E E E E E
|--------------|------------------|-------------|-----------------|
|------3----3--|-(3)--3-3-5-3-----|----0-----0--|----0-3-3-0-0-3--|
|-3S4----------|--------------3-2-|-0--0-----0--|----0-------0----|
|--------------|------------------|----0-----0--|----0-------0----|
|--------------|------------------|-------------|-----------------|
|-5------------|------------------|-5-----0-----|-5------0--------|


  E E Q  Q  Q    Q  Q  Q  E E   Q  Q  Q  Q    Q  Q  E E E E
|--------------|--------------|-------------|---------------|
|-----1--------|----1---------|-0--0-----0--|----0----3-0-3-|
|-----0-----5--|----0-----5-4-|----0-----0--|----0------0---|
|-0-2-------5--|----2-----5---|----0-----0--|----0------0---|
|--------------|-3------------|-------------|---------------|
|--------5-----|-------5------|-5-----0-----|-5-----0-------|


  a Q  H    Q    +Q   E E E E E E   Q  Q  E E a Q    Q  E E E E E E
|--------------|------------------|----------------|----------------|
|------3----3--|-(3)--3-3-5-3-----|----0----3-2S3--|----3-3-1-0-0-0-|
|-3S4----------|--------------3-4-|-0--0--------0--|----0-------0---|
|--------------|------------------|----0--------0--|----0-------0---|
|--------------|------------------|----------------|----------------|
|-5------------|------------------|-5-----0--------|-5------0-------|
  Second time only
  V
  Q  Q  Q  Q    Q  E E E E E E   Q.   E E E E E   Q  Q  Q  Q
|-3-----------|----------------|----------------|-------------||
|-------------|------3-----3-3-|------3---------|----0-----0--||
|----2-----2--|----2-----------|-0------2-0-----|-0--0-----0--||
|----0-----0--|----0---0-2-----|------------2-0-|----0-----0--||
|-0-----------|-0--------------|----------------|-------------||
|-------0-----|--------0-------|-5------0-------|-5-----0-----||

PROGRESSION

A, B, B, C, B, C, B

VERSES

1.Black smokes a risin' and it surely is a train
  Surely is a train, boys, surely is a train
  Black smokes a risin' and it surely is a train
  I'm on my long journey home

2.Lost all my money but a two dollar bill
  Two dollar bill, boys, two dollar bill
  Lost all my money but a two dollar bill
  I'm on my long journey home

3.Homesick and lonesome and I'm feeling kind of blue
  Feeling kind of blue, boys, feeling kind of blue
  Homesick and lonesome and I'm feeling kind of blue
  I'm on my long journey home
  
4.It's dark and a rainin' and I've got to go home
  Got to go home, boys, got to go home
  It's dark and a rainin' and I've got to go home
  I'm on my long journey home


================================================================

Instrumental Version

  Q  Q  E E Q    Q.   E Q  Q    a Q  Q  E E Q    Q  Q  Q  Q
|-----------0--|-3------5--3--|-6-7--7--7-6-5--|-3------------|
|-3--3----0----|-0----3-------|------0---------|----0-----0---|
|-0------------|-0------------|------0---------|----0-----0---|
|-0------------|--------------|------0------0--|----0-----0---|
|--------------|--------------|----------------|--------------|
|-5-----0------|-5------0-----|-4-5-----0------|-5-----0------|


  Q  Q  E E Q    Q  Q  Q  Q    a Q  Q  Q  Q    E E Q  Q   Q
|-0--3----3----|-3-----3-----|-2-3--3--3--3--|-0-------------|
|----1------1--|----1-----1--|------0-----0--|---3--------0--|
|----0------0--|----0-----0--|------0-----0--|-----0------0--|
|-2--2------2--|----2-----2--|------0-----0--|-----0------0--|
|-3-----3------|-3-----3-----|---------------|---------------|
|--------------|-------------|-4-5-----0-----|-5------0------|


  Q  Q  E E Q    Q.   E Q  Q    a Q  Q  E E Q    Q  Q a Q  Q
|-----------0--|-3------5--3--|-6-7--7--7-7-5--|-3----5S7------|
|-3--3----0----|-0----3-------|------0------3--|----0------0---|
|-0------------|-0------------|------0---------|----0------0---|
|-0------------|--------------|------0------0--|----0------0---|
|--------------|--------------|----------------|---------------|
|-5-----0------|-5------0-----|-4-5-----0------|-5------0------|

                                                Repeat...

  Q  Q  Q  E E   Q  Q  Q  E E   Q  E E E E E E   Q  Q  Q  Q
|-7-----7------|-5-----5--7---|-3--------------|-------------||
|----0---------|----------0---|----0-3-----0---|----0-----0--||
|----0-----4-0-|----2-------0-|----0---2-0-0---|-0--0-----0--||
|----0-----0---|----0-----0---|----0-------2-0-|----0-----0--||
|--------------|-------0------|----------------|-------------||
|-5-----0------|-0------------|-5------0-------|-5-----0-----||




Duration Legend
---------------
W - whole; H - half; Q - quarter; E - 8th; S - 16th; T - 32nd; X - 64th; a - acciaccatura
+ - note tied to previous; . - note dotted; .. - note double dotted
Uncapitalized letters represent notes that are staccato (1/2 duration)
Irregular groupings are notated above the duration line
Duration letters will always appear directly above the note/fret number it represents the
duration for.  Duration letters with no fret number below them represent rests.  Multi-
bar rests are notated in the form Wxn, where n is the number of bars to rest for.  Low
melody durations appear below the staff

Tablature Legend
----------------
 h   - hammer-on
 p   - pull-off
 b   - bend
 pb  - pre-bend
 r   - bend release (if no number after the r, then release immediately)
 /\  - slide into or out of (from/to "nowhere")
 s   - legato slide
 S   - shift slide
  - natural harmonic
[n]  - artificial harmonic
n(n) - tapped harmonic
 ~   - vibrato
 tr  - trill
 T   - tap
 TP  - trem. picking
 PM  - palm muting
\n/  - tremolo bar dip; n = amount to dip
 \n  - tremolo bar down
 n/  - tremolo bar up
/n\  - tremolo bar inverted dip
 =   - hold bend; also acts as connecting device for hammers/pulls
 <>  - volume swell (louder/softer)
 x   - on rhythm slash represents muted slash
 o   - on rhythm slash represents single note slash

Misc Legend
-----------
 |  - bar
||  - double bar
||o - repeat start
o|| - repeat end
*|  - double bar (ending)
 :  - bar (freetime)
 $  - Segno
 &  - Coda
Tempo markers -  = BPM(8/16=s8/s16), where s8 = swing 8ths, s16 = swing 16ths


***************************************************************************************
* Generated using Power Tab Editor by Brad Larsen - http://powertab.guitarnetwork.org *
***************************************************************************************

        
Comments

No comments yet